Song name
# A B C D E F G H I J K L M N O P Q R S T U V W X Y Z

Misc Unsigned Bands - As The Dawn Arises - Running Out Of Time tab

INTRO
e-----------------------------------------------|
b-9--------9------------------------------------|
g-7--------7------------------------------------| (6xs)
d-6--------6------------------------------------|
a-5--------5------------------------------------|
E---0----0---0000-0000--------------------------|
   PM_____   _________
e-----------------------------------------------------|
b-----------------------------------------------------|
g-12----10----9----10----7----9-----------------------| (play each chord 3x each
d-x-----x-----x----x-----x----x-----------------------|           one)
a-10----8-----7----8-----5----7-----------------------|
E-----------------------------------------------------|
VERSE
e--------------------------------------|
b--------------------------------------|
g--------------------------------------|
d--------------------------------------|
a-8----7--5--7-8-----------------------|
E---0-0-0---0---0000-0000-0000---------|

e--------------------------------------|
b--------------------------------------|
g--------------------------------------|
d--------------------------------------|
a-8----7--5--7-------------------------|
E---0-0-0---0--------------------------|

e----------------------------------------|
b----------------------------------------|
g-10-10-10-10-10-10-14-14-14-14-14-------|
d-x--x--x--x--x--x--x--x--x--x--x--------|
a-8--8--8--8--8--8--12-12-12-12-12-------|
E----------------------------------------|

e-------------------------------------|
b-------------------------------------|
g-12-12-12-12-12-12--9--9--9--9--9--9-|
d-x--x--x--x--x--x---x--x--x--x--x--x-|
a-10-10-10-10-10-10--7--7--7--7--7--7-|
E-------------------------------------|

e-------------------------------------|
b-------------------------------------|
g-------------------------------------|
d-------------------------------------|
a-8----7--5--7-8----------------------|
 ---0-0-0---0---0000-0000-0000--------|

e-------------------------------------|
b-------------------------------------|
g--------------10-10-10-10-10-10------|
d--------------x--x--x--x--x--x-------|
a-8----7--5--7-8--8--8--8--8--8-------|
E---0-0-0---0-------------------------|

e-------------------------------------|
b-------------------------------------|
g-7--7--7--7--7--7--5--5--5--5--5--5--|
d-x--x--x--x--x--x--x--x--x--x--x--x--|
a-5--5--5--5--5--5--3--3--3--3--3--3--|
E-------------------------------------|

e-------------------------------------|
b-------------------------------------|
g-3--3--3--3--3--3--5--5--5--5--5--5--|
d-x--x--x--x--x--x--x--x--x--x--x--x--|
a-1--1--1--1--1--1--3--3--3--3--3--3--|
E-------------------------------------|

e-----------------------------------------------|
b-----------------------------------------------|
g-9--9--9--9--9--9------------------------------|after the 2nd time through\
d-x--x--x--x--x--x--\        play this----------|         /
a-7--7--7--7--7--7------------------------------|
E-----------------------------------------------|

e--------------------------------------|
b--------------------------------------|
g-14-14-14-14-14-14-12-12-12-12-12-12--|
d-x--x--x--x--x--x--x--x--x--x--x--x---|
a-12-12-12-12-12-12-10-10-10-10-10-10--|
E--------------------------------------|

e---------------------------------------|
b------------------1--------------------|
g---5-------7------2--------5-----------|
d---5-------7------2--------5-----------|
a---3-------5------0--------3-----------|
E---------------------------------------|

e---------------------------------------|
b---------------------------------------|
g-3------5----3----5-----LET'S GO!!!!---|
d-3-10x--5----3----5--------------------|
a-1------3----1----3--------------------|
E---------------------------------------|
SOLO #1
e---------------------------------------|
b-10h15p10h13p10--10h15p10h13p10--10h15-|
g---------------13--------------13------|
d---------------------------------------|
a---------------------------------------|
E---------------------------------------|

e---------------------------------------|
b-p10h13p10--10h15p10h13p10--15p13p10---|
g----------13--------------13-----------|
d---------------------------------------|
a---------------------------------------|
E---------------------------------------|

e---------------------------------------|
b-15-17-18-18-17-15h17p15---------------|
g------------------------15~h17p15s14~s-|
d---------------------------------------|
a---------------------------------------|
E---------------------------------------|

e-----------------------------------------|
b-----------------15-17-18-18-17-15h17p15-|
g-13h15p13s12-----------------------------|
d-----------------------------------------|
a-----------------------------------------|
E-----------------------------------------|

e----------------------------------------|
b-h17p15---------------------------------|
g-------15h17p15h17p15s14-13h15p13h15p13-|
d----------------------------------------|
a----------------------------------------|
E----------------------------------------|

e----------------------------------------|
b----------------------------------------|
g-s12-12-10-9-7--------------------------|
d----------------------------------------|
a----------------------------------------|
E----------------------------------------|
T T T T T T T T T T T T T T T T T T T T T
e----------------------------------------|
b-17-18-17-18-16-17-16-17-15-16-15-16-14-|
g----------------------------------------|
d----------------------------------------|
a----------------------------------------|
E----------------------------------------|
T T T T T T T T T T T T T T T T T T T T T
e----------------------------------------|
b-15-14-15-13-14-13-14-12-13-12-13-11-12-|
g----------------------------------------|
d----------------------------------------|
a----------------------------------------|
E----------------------------------------|
T T T T
e--------10-11-12-13-12-11-10-11-12-13-12-|
b-11-12-----------------------------------|
g-----------------------------------------|
d-----------------------------------------|
a-----------------------------------------|
E-----------------------------------------|

e-11-10--12-13-14-15-14-13-12-13-14-15-14-|
b-----------------------------------------|
g-----------------------------------------|
d-----------------------------------------|
a-----------------------------------------|
E-----------------------------------------|

e-13-12--15-16-17-18-17-16-15-16-17-18-17-|
b-----------------------------------------|
g-----------------------------------------|
d-----------------------------------------|
a-----------------------------------------|
E-----------------------------------------|

e-16-15-17-18-19-20-19-18-17-18-19-20-19-|
b----------------------------------------|
g----------------------------------------|
d----------------------------------------|
a----------------------------------------|
E----------------------------------------|

e-18-17----24~~~~~~~~~~~~-----------------|
b------------------------7-8-9-10-9-8-7-8-|
g-----------------------------------------|
d-----------------------------------------|
a-----------------------------------------|
E-----------------------------------------|

e----------------------------------------|
b-9-10-9-8-7-----------------------------|
g-----------6h8h9-7h9h10-8h10h11-9h11h12-|
d----------------------------------------|
a----------------------------------------|
E----------------------------------------|

e----------------------------------------|
b----------------------------------------|
g-12-0-11-0-10-0-9-0-8-0-7-0-6-----------|
d-----------------------------12sdn------|
a----------------------------------------|
E----------------------------------------|

e----------------------------------------|
b----------------------------------------|
g----------------------------------------|
d----------------------------------------|
a-8----7--5--7-8-------------------------|
E---0-0-0--0----0000-0000-0000-----------|
Tap to rate this tab
# A B C D E F G H I J K L M N O P Q R S T U V W X Y Z