Song name
# A B C D E F G H I J K L M N O P Q R S T U V W X Y Z

Misc Unsigned Bands - Poison Reaction - Mayhem Voyage tab

This is a solo song, It is got a 4 finger
tech so when you move in that pattern the
song will become quite good to play.

Bend Down = \
Bend up   = /
Hammer on = H
Pull off  = P
Bridge 1  = B1
Bridge 2  = B2
Bridge 3  = B3

Bridge 1
|-----0-1-478---11/|
|------------------|
|------------------|
|------------------|
|------------------|
|------------------|
Bridge 2
|-------------|
|---10\10\10\-|
|-------------|
|-------------|
|-------------|
|-------------|
Bridge 3
|------10-----|
|-------------|
|-------------|
|-------------|
|-------------|
|-------------|

Intro
|------------------------------------|
|--------777999888B3B3B3777999888----|
|------------------------------------|
|------------------------------------|
|------------------------------------|
|------------------------------------| x2
1 use bridge 3 on second time use bridge 2
then repeat all

Chorus
|---------------------------------------|
|--------798-798B3-789B1-798-79987-789B2|
|---------------------------------------|
|---------------------------------------|
|---------------------------------------|
|---------------------------------------|

Play Intro

Play Chorus

Intro Solo
|----------------------------------------------------5-5-6-7-9/-------|
|----------56566767787857685768567856785678858687885\-6-6-7-7/----789-|
|--------------------------------------------------------------789----|
|---------------------------------------------------------------------|
|---------------------------------------------------------------------|
|---------------------------------------------------------------------|

------------------------|
-------789---9-11-15-19/|
----789---789-----------|
------------------------|
------------------------|
------------------------|
Tap to rate this tab
 
# A B C D E F G H I J K L M N O P Q R S T U V W X Y Z