Song name
# A B C D E F G H I J K L M N O P Q R S T U V W X Y Z

Misc Unsigned Bands - Enough Said - Neighborhood Slut tab

ENOUGH SAID
N.H. beatdown/hardcore
from the "Neighborhood slut" single

intro/verse:
                                           
|------------------------------|    |--------------|
|------------------------------|    |--------------|
|------------------------------|    |--------------|
|---5----6----5----------------|    |---00000000---|
|---3----6----5----------------|    |---00000000---| 
|-----00-6-00-5-0000-000-000---|x4  |---00000000---|(leading into the verse)


pre chorus:
                                      (leading into chorus)
|--------------------------------|   |-------------------------------|
|--------------------------------|   |-------------------------------|
|--------------------------------|   |-------------------------------|
|-0-6-5-3-5-3-0-----0-3-6-5-3----|   |-0-3-6-5-3-5-0-3-3-3-3-3-3-3-3-| 
|-0-6-5-3-5-3-0-5*--0-3-6-5-3----|   |-0-3-6-5-3-5-0-3-3-3-3-3-3-3-3-|
|-0-6-5-3-5-3-0-----0-3-6-5-3-3*-|x3 |-0-3-6-5-3-5-0-3-3-3-3-3-3-3-3-|


chours:

|-----------------------------------------------------------------|
|-----------------------------------------------------------------|
|-----------------------------------------------------------------|
|--0-3/5-0-7-0-5----------------0-3/5-0-7-0-5---------------------|
|--0-3/5-0-7-0-5--3-------------0-3/5-0-7-0-5--3/5-3--------------|
|--0-3/5-0-7-0-5----6-5-3-5-5*--0-3/5-0-7-0-5--------6-5-3-5*-----|x2


leading into breakdown
|---------|
|---------|
|---------|
|--3~--1~-|
|--3~--1~-|
|--3~--1~-|

breakdown:

|-----------------------------------------|
|-----------------------------------------|
|-----------------------------------------|
|--000-00-000000-00-000000-00-0-1~-4-3-1--|
|--000-00-000000-00-000000-00-0-1~-4-3-1--|
|--000-00-000000-00-000000-00-0-1~-4-3-1--|

pinch harmonic- *

song order sequence:

intro x4
verse x4
prechorus x3
chorus x2
intro x4
verse x4
prechorus x3
chorus x2
breakdown x2
intro x4
verse x4
prechorus x3
chorus x2
breakdown x4
Tap to rate this tab
# A B C D E F G H I J K L M N O P Q R S T U V W X Y Z