Song name
# A B C D E F G H I J K L M N O P Q R S T U V W X Y Z

Misc Unsigned Bands - Shit Sandwich - Going Out Side chords

Highlighted       Show chord diagrams
-----------------------------------------------------------------------------
			     going outside - shit sandwich
-----------------------------------------------------------------------------
Tabbed by:kyle williams
Email: kylewilliams92@yahoo.com

Tuning:drop c

|-x-x-xx--0-0-x-x--x-x-xx--2-2-x-x--x-x--0-0-x-x--0-0-x-x--2-2-x-x-|
|-x-x-xx--1-1-x-x--x-x-xx--3-3-x-x--x-x--1-1-x-x--1-1-x-x--3-3-x-x-|
|-0-0-00--0-0-x-x--0-0-00--2-2-x-x--0-0--0-0-x-x--2-2-x-x--2-2-x-x-|
|-0-0-00--2-2-x-x--0-0-00--0-0-x-x--0-0--2-2-x-x--2-2-x-x--0-0-x-x-|
|-2-2-22--3-3-x-x--2-2-22--x-x-x-x--2-2--3-3-x-x--x-x-x-x--x-x-x-x-|
|-5-5-55--x-x-x-x--5-5-55--x-x-x-x--5-5--x-x-x-x--x-x-x-x--x-x-x-x-|

repeat through out hole song

| /  slide up
| \  slide down
| h  hammer-on
| p  pull-off
| ~  vibrato
| +  harmonic
| x  Mute note
Tap to rate this tab
# A B C D E F G H I J K L M N O P Q R S T U V W X Y Z