Song name
# A B C D E F G H I J K L M N O P Q R S T U V W X Y Z

Misc Unsigned Bands - Torturous - Turnerjoy tab

-------------------------------------------------------------------------------
			     Torturous - Turnerjoy
-------------------------------------------------------------------------------
Tabbed by: Jonnoley
Email: nick.smith667@hotmail.co.uk

Tuning:              Standard Tuning          [EADGBe]

I heard this song on the Channel Four show Skins. I wanted to learn it, but
 no one had tabbed it. So, for once, I had to do some work. If you have any
 comments/suggestions/corrections please e-mail, but only if the are 
helpful.  


     Am     F     G    G7    Bm    F#     E    Em
e|----0-----1-----3-----1-----2-----2-----0-----0-----|
B|----1-----1-----0-----0-----3-----2-----0-----0-----|
G|----2-----2-----0-----0-----4-----3-----1-----0-----|
D|----2-----3-----0-----0-----4-----4-----2-----2-----|
A|----0-----3-----2-----2-----2-----4-----2-----2-----|
E|----------0-----3-----3-----------2-----0-----0-----|


Verse

Am        F           G                   G7
Re------nal paranoia, you annoy her, with your, hesitation.
Am                                 F              
It's no good to see her if you're, up to leave her.  
G            G7
Human order, limitations.

Into 6/8 time now…

Bm          F#          E        Em
AAAAAAAAAhhhhhhhhhhhhhhhhhhhhhhhhhh... (You get the picture.)

Chorus 1

   Bm                                    
Why d'you have to go be so beautiful inside, 
   F#
don't you know, it's torturous?
    E
You have got some big charisma,
   Em
But to our senses we are all astray.


Bm          F#          E        Em
Ahhhhhh... (Complicated...)




[b]Solo[/b]

           
You could go to the B string, but it slides in the track.
                           v
e----/-15----14----12----/14\---7---5---5(^7)----3----2--0------------10--9---/14------|
B|-----------------------------------------------------------3----2--------------------|
G|-------------------------------------------------------------------------------------|
D|-------------------------------------------------------------------------------------|
A|-------------------------------------------------------------------------------------|
E|-------------------------------------------------------------------------------------|

e|------17--14--17--19(^21)-19--17--14--12--14--12-----10(^12)--\7----|
B|--------------------------------------------------------------------|
G|--------------------------------------------------------------------|
D|--------------------------------------------------------------------|
A|--------------------------------------------------------------------|
E|--------------------------------------------------------------------|

e|-----3p2p0---------10--9--7------/15--14----------------------------|
B|------------3--2----------------------------------------------------|
G|--------------------------------------------------------------------|
D|--------------------------------------------------------------------|
A|--------------------------------------------------------------------|
E|--------------------------------------------------------------------|

Chorus 2
 
e|--14--17--14--17--19(^21)-19--17--14--12--14--12-----10(^12)--\7----|
B|--------------------------------------------------------------------|
G|--------------------------------------------------------------------|
D|--------------------------------------------------------------------|
A|--------------------------------------------------------------------|
E|--------------------------------------------------------------------|

e|--3p2p0----------10--9--7------/15--14---------|
B|----------3---2--------------------------------|
G|-----------------------------------------------|
D|-----------------------------------------------|
A|-----------------------------------------------|
E|-----------------------------------------------|

Basically the second part of the solo under the chorus. Put in a few alterations.

Bm                                    
Why d'you have to go be so beautiful inside, 
   F#
don't you know, it's torturous?
    E
You have got some big charisma,
   Em
But to our senses we are all astray.

   Bm                                    
Why d'you have to go be so beautiful inside, 
   F#
don't you know, it's torturous?
    E
You have got some big charisma,
   Em
But to our senses we are all astray.



Bm          F#          E        Em
Ahhhhhh...  Until fade out.


| /  slide up
| \  slide down
| h  hammer-on
| p  pull-off
| ~  vibrato
| +  harmonic
| x  Mute note
===============================================================================
Tap to rate this tab
# A B C D E F G H I J K L M N O P Q R S T U V W X Y Z