Song name
# A B C D E F G H I J K L M N O P Q R S T U V W X Y Z

Misc Unsigned Bands - Steadlur - Bumpin tab

STEADLUR
BUMPIN'
tabbed by T
email wasssup@hotmail.co.uk for any donations to the T jagerbomb foundation
tuning: drop Db (eb Bb Gb db Ab Db)
no timings include, just what they play, no refunds if you blow your face off etc.

INTRO
lead
e--------------------------------| X2
B--------------------------------|
G--------------------------------|
D----7-9----7-9-----7-9----7-9---|
A-/9-----/9------/9-----/9-----7-|
D--------------------------------|
rhythm
e--X15-|---| X2
B------|---|
G------|---|
D-4----|-2-|
A-4----|-2-|
D-4----|-2-|
pause then:
lead
e--------------------------------|
B--------------------------------|
G--------------------------------|
D----7-9----7-9-----7-9----7-9---|
A-/9-----/9------/9-----/9-----7-|
E--------------------------------|
rhythm
e--X15-|---| 
B------|---|
G------|---|
D-4----|-2-|
A-4----|-2-|
D-4----|-2-|

lead
e--------------------------------|
B--------------------------------|
G--------------------------------|
D----7-9----7-9-----7-9----7-9---|
A-/9-----/9------/9-----/9-----7-|
D--------------------------------|
rhythm
e--X15-|---| 
B------|---|
G------|---|
D-4----|-2-|
A-4----|-2-|
D-4----|-2-|

lead
e--------------------------------|
B--------------------------------|
G--------------------------------|
D----7-9----7-9-----7-9----7-9---|
A-/9-----/9------/9-----/9-----7-|
D--------------------------------|
rhythm
e--X8-|--X8-| 
B-----|-----|
G-----|-----|
D-0---|-2---|
A-0---|-2---|
D-0---|-2---|

CHORUS
lead

e---5--4--7--5--45-| X4
B------------------|
G-44-44-44-44-44---|
D------------------|
A------------------|
D------------------|

rhythm
e-------------------| X4
B-------------------|
G-------------------|
D-444444-2-777777-2-|
A-444444-2-777777-2-|
D-444444-2-777777-2-|

e-----------------| X2
B-----------------|
G-----------------|
D-44444-7-22222-7-|
A-44444-7-22222-7-|
D-44444-7-22222-7-|

VERSE
lead
e--------------------------------|
B--------------------------------|
G--------------------------------|
D----7-9----7-9-----7-9----7-9---|
A-/9-----/9------/9-----/9-----7-|
E--------------------------------|
rhythm
e--X15-|---| 
B------|---|
G------|---|
D-4----|-2-|
A-4----|-2-|
D-4----|-2-|

lead
e--------------------------------|
B--------------------------------|
G--------------------------------|
D----7-9----7-9-----7-9----7-9---|
A-/9-----/9------/9-----/9-----7-|
D--------------------------------|
rhythm
e--X15-|---| 
B------|---|
G------|---|
D-4----|-2-|
A-4----|-2-|
D-4----|-2-|

e------------------|
B------------------|
G------------------|
D---4---4---4------|
A------------------|
D-44-4-4-4-4-444-2-|

e--------------------------------|
B--------------------------------|
G--------------------------------|
D----7-9----7-9-----7-9----7-9---|
A-/9-----/9------/9-----/9-----7-|
D--------------------------------|

CHORUS
come in with a pickslide
lead
e---5--4--7--5--45-| X4
B------------------|
G-44-44-44-44-44---|
D------------------|
A------------------|
D------------------|
rhythm
e-------------------| X4
B-------------------|
G-------------------|
D-444444-2-777777-2-|
A-444444-2-777777-2-|
D-444444-2-777777-2-|

POST CHORUS
there are some clean chords in the background, but I
can't work them out
e-------------------------------------| X2
B-------------------------------------|
G-66666666-22222222----------44444444-|
D-66666666-22222222-22222222-44444444-|
A-44444444-00000000-22222222-22222222-|
D-------------------22222222----------|
rhythm
e---------------------------------| X6
B---------------------------------|
G---------------------------------|
D-4444422-7777722-4444422-7777722-|
A-4444422-7777722-4444422-7777722-|
D-4444422-7777722-4444422-7777722-|
pm....... ....... ....... .......
lead
with wah
e------------------------------|
B------------------------------|
G-1111111111119914141414141499-|
D-x-x-x-x-x-x-xxxxxxxxxxxxxxxx-|
A-9-9-9-9-9-9-7712121212121277-|
D------------------------------|

SOLO BREAK

e------14-----14-----141414-|
B------14-----14-----141414-|
G-16b18--16b18--16b18-------|
D---------------------------|
A---------------------------|
D---------------------------|

e-17p14----------17p14----------17p14------|
B------17p14----------17p14----------17p14-|
G-----------16p14----------16p14-----------|
D------------------------------------------|
A------------------------------------------|
D------------------------------------------|

CHORUS
lead
e---5--4--7--5--45-| X4
B------------------|
G-44-44-44-44-44---|
D------------------|
A------------------|
D------------------|
rhythm
e-------------------| X4
B-------------------|
G-------------------|
D-444444-2-777777-2-|
A-444444-2-777777-2-|
D-444444-2-777777-2-|

OUTRO SOLO
lead
e--5-5-57b9r7-5-5-----12-----12-----12-----12-|
B-7-7-7------7-7-12b14--12b14--12b14--12b14---|
G---------------------------------------------|
D---------------------------------------------|
A---------------------------------------------|
D---------------------------------------------|
                                            bend slowly
e------14-----14-----14-----14-17b19r19--14-14------|
B-17b19--17b19--17b19--17b19-----------17-----17b19-|
G---------------------------------------------------|
D---------------------------------------------------|
A---------------------------------------------------|
D---------------------------------------------------|
rhythm
e-------------------| X6
B-------------------|
G-------------------|
D-444444-2-777777-2-|
A-444444-2-777777-2-|
D-444444-2-777777-2-|
lead
e-17p14----------17p14------| X2
B------17p14----------17p14-|
G-----------16p14-----------|
D---------------------------|
A---------------------------|
D---------------------------|
just pick these bends quite fast
e-14----------------|
B-17b19r17b19r17b19-|
G-------------------|
D-------------------|
A-------------------|
D-------------------|
rhythm
e-----------------| X4
B-----------------|
G-----------------|
D-44444-7-22222-7-|
A-44444-7-22222-7-|
D-44444-7-22222-7-|
end with
e---|
B---|
G---|
D-4-|
A-4-|
D-4-|
Tap to rate this tab
# A B C D E F G H I J K L M N O P Q R S T U V W X Y Z