Song name
# A B C D E F G H I J K L M N O P Q R S T U V W X Y Z

Misc Unsigned Bands - Chatham - Out Of The Sky tab

-------------------------------------------------------------------------------
			     OUT OF THE SKY - Chatham
-------------------------------------------------------------------------------
Tabbed by: Christopher William Kahovec

Listen to song for strumming patterns.


Tuning: Drop D

Intro/Verse 1

e|---------------------------------------------|
B|---------------------------------------------|
G|-----------------------5*--------------------|
D|--5---5---5---5--------5*--(Last time only)--|
A|--5---5---5---5--------5*--------------------|
E|--5---4---2---0------------------------------|

Chorus

e|--------------------------------------------------------------------------------------|
B|--------------------------------------------------------------------------------------|
G|--7----11---12----14------------------------------------------------------------------|
D|--5----9----10----12------------------------------------------------------------------|
A|--5----9----10----12------------------------------------------------------------------|
E|--5----9----10----12------------------------------------------------------------------|

Verse 2

e|-----------------------------------------------------------------------------------|
B|-----------------------------------------------------------------------------------|
G|-----------------------5*----------------------------------------------------------|
D|--5---5---2---0--------5*--(End of each phrase)------------------------------------|
A|--5---5---2---0--------5*----------------------------------------------------------|
E|--5---4---2---0--------------------------------------------------------------------|

Bridge

e|------------------------------------|
B|------------------------------------|
G|------------------------------------|
D|--14---12---10---14---12---10---12--|
A|--14---12---10---14---12---10---12--|
E|--14---12---10---14---12---10---12--|

Outro

e|----------------------------------------|
B|----------------------------------------|
G|----------------------------------------|
D|--3---6---3---6---3---6--------------2--|
A|--3---6---3---6---3---6------End on -2--|
E|--3---6---3---6---3---6--------------2--|

Order Of Song
Intro/Verse 1
Chorus
Verse 2 - Play muted after 1st time
Chorus
Bridge
Chorus w/solo
Bridge
Chorus chords rung out
Chorus
Outro

| *  harmonic
=============================================================
Tap to rate this tab
# A B C D E F G H I J K L M N O P Q R S T U V W X Y Z