Song name
# A B C D E F G H I J K L M N O P Q R S T U V W X Y Z

Misc Unsigned Bands - Sungha Jung - Billie Jean tab

Billie Jean - Fingersytle

I'd give it a shot since no one else has tabbed the song here for ages.
I learnt the song by ear sooo I’m pretty sure that the tab is not tht accurate, just 
how Sungha Jung plays it.

This is my very first tab and I really tried my best working on it these past few days. 
you guyz think there’s a mistake in the tabulature, plz let me know, mesg me in 
soo yehh, Enjoy ningens!! ~~PeaX out~~

~~25th of November 2009~~

~~CAPO ON 2ND FRET~~

P = pull off
/ = slide
H = hammer
~ = vibrato?


PART 1		1X				3X
E|-----------------------------------|-----------------------------------------|
B|---[T]-------[T]----------[T]------|---------[T]-----------[T]---------------|
G|---[A]-------[A]----------[A]------|---------[A]-----------[A]---------------|
D|---[P]-------[P]--2-------[P]------|------—--[P]--2--------[P]---------------|
A|--------7--2---------5--2—-----2---|---7--2----------5--2--------2-----------|
E|---------------------------5-------|------------------------5----------------|

PART 2									2X
E|--0----------2-------------------3-------------2-----------------------------|
B|--0----[T]---2---------[T]-------3-------[T]---2-----------[T]---------------|
G|--0----[A]---2---------[A]-------2-------[A]---2-----------[A]---------------|
D|-------[P]-------------[P]---------------[P]---------------[P]---------------|
A|----2-----------5--2---------2--------2------------5---2----------2----------|
E|------------------------5-----------------------------------5----------------|

PART 3
E|-------------------------------------------------------------------------------|
B|----0-—[T]--0----—--[T]--------0---------[T]-----0-------0-[T]-0---------------|
G|----0--[A]--0----2—-[A]--2-----0------2—-[A]--0----------0-[A]-0----2----------|
D|-------[P]-------0--[P]--0----------2----[P]--0------------[P]------0----------|
A|--------------2-------------------2-----------------2------------2-------------|
E|--0-------------------------0--------------------5-----0-----------------------|

-------------------------------------------|
--[T]--------0---[T]--2—-[T]—-0------------|
--[A]--2-----0---[A]--2—-[A]--0------------|
--[P]--0---------[P]--2--[P]-----4---2-----|
---------------------------------2---------|
-----------0-------------------------------|

PART 4
E|----------------------------------------------------------|
B|----------------[T]---------------------------------------|
G|----------------[A]---------------------------------------|
D|----------------[P]----2-2h4--------2-2h4-----2-2h4-------|
A|--0---------0-----------------0---------------------------|
E|-----0---3-----------0-----------0---------0--------------|

PART 5
E|--0----------2-------------------------------------------|
B|--0-----[T]--2--------[T]--------------------------------|
G|--0-----[A]--2--------[A]-------------2------------------|
D|--------[P]-----------[P]------2--5---0--5--4--2---------|
A|-----2----------5--2-------2-----------------------------|
E|-----------------------5---------------------------------|

E|----------------------------------------------------------|
B|----------------[T]---------------------------------------|
G|----------------[A]---------------------------------------|
D|----------------[P]----2-2h4--------2-2h4-----2-2h4-------|
A|--0---------0-----------------0---------------------------|
E|-----0---3-----------0-----------0---------0--------------|

E|--0----------2-------------------3-------------2-----------------------------|
B|--0----[T]---2---------[T]-------3-------[T]---2-----------[T]---------------|
G|--0----[A]---2---------[A]-------2-------[A]---2-----------[A]---------------|
D|-------[P]-------------[P]---------------[P]---------------[P]---------------|
A|----2-----------5--2---------2--------2------------5---2----------2----------|
E|------------------------5-----------------------------------5----------------|

PART 6
E|-------------------------------------------------------------------------------|
B|----0-—[T]--0----—--[T]--------0---------[T]-----0-------0-[T]-0---------------|
G|----0--[A]--0----2—-[A]--2-----0------2—-[A]--0----------0-[A]-0----2----------|
D|-------[P]-------0--[P]--0----------2----[P]--0------------[P]------0----------|
A|--------------2-------------------2-----------------2------------2-------------|
E|--0-------------------------0--------------------5-----0-----------------------|

-------------------------------------------|
--[T]--------0---[T]--2—-[T]—-0------------|
--[A]--2-----0---[A]--2—-[A]--0------------|
--[P]--0---------[P]--2--[P]-----4---2-----|
---------------------------------2---------|
-----------0-------------------------------|

E|----------------------------------------------------------|
B|----------------[T]---------------------------------------|
G|----------------[A]---------------------------------------|
D|----------------[P]----2-2h4--------2-2h4-----2-2h4-------|
A|--0---------0-----------------0---------------------------|
E|-----0---3-----------0-----------0---------0--------------|

E|--0----------2-------------------3-------------2-----------------------------|
B|--0----[T]---2---------[T]-------3-------[T]---2-----------[T]---------------|
G|--0----[A]---2---------[A]-------2-------[A]---2-----------[A]---------------|
D|-------[P]-------------[P]---------------[P]---------------[P]---------------|
A|----2-----------5--2---------2--------2------------5---2----------2----------|
E|------------------------5-----------------------------------5----------------|

Part 7
E|--0--0-------0-----3-------3—-3p0--0-------0-------------------0--0------------|
B|--1--1--[T]--0-----1—-[T]--0--0----0—-[T]--0----0h3--[T]--0----1--1—-[T]-------|
G|--0--0—-[A]--0--0-----[A]--0--0----0—-[A]--0--0------[A]-------0--0—-[A]-------|
D|--2--2--[P]-----------[P]-------------[B]------------[B]-------------[P]-------|
A|--3--3-------3-------------2--2------------2-------------------3--3------------|
E|-------------------------------------------------------------------------------|

--0-----0h2-------0----------0-----6/7---6/3-----0--0-------0----3---------------|
--0-----0----[T]--0----------0-----7/8---8/5-----1--1--[T]--0----1--[T]—---------|
--0—-0-------[A]---------------0---8/9---7/4-----0--0--[A]--0—-0----[A]----------|
-------------[P]---------------------------------2--2--[P]----------[P]----------|
--3------------------------0---------------------3--3-------3--------------------|
---------------------------------------------------------------------------------|

--3—-3p0--0-------0---------------------------0----0-------------------------|
--0--0----0--[T]--0----0h3--[T]--0------1--3--1-—-----1---4--4--7—--7--[T]---|
--0--0----0--[A]--0--0------[A]--—------0--0--0--0--------4--2--4---4--[A]---|
-------------[P]------------[P]----------------------------------------[P]---|
--2--2------------2---------------------3--2--3-----------2--4--6------------|
-----------------------------------------------------------------------------|

Part 8
E|---------0-----3p0-----0-------------------------------------------------|
B|--0—4/5-----5-------5-----5---0—-4/5--0-------0-------0------------------|
G|-----------------------------------------3/4-----2/4---------------------|
D|----------------------------------------------------------2p0------------|
A|--------------------------------------------------------------2p0--------|
E|------------------------------------------------------------------3~p0---|

Part 9
E|-0-------0--------------0--0------------------0-----0-------0-------|
B|-0—-[T}--0—3p0-—[T]-----0--0—-[T]—-3~p0—-[T]--0-----0—-[T]—-0--3p0--|
G|----[A]---------[A]-----------[A]--------[A]-----------[A]----------|
D|----[P]---------[P]-----------[P]--------[P]-----------[P]----------|
A|-----------2-----------------------2---------------------------2----|
E|--------------------0---------------------------0-------------------|

---------0--3-------5------3—-2p0-------------------------7---5---0-------|
-[T]-----0-----[T]------0--------------------[T]------------0---0----0h1-0|
-[A]-----------[A]---------------------------[A]---------------------0h2-0|
-[P]--------0—-[P]--0------0-----------------[P]--------------------------|
----------------------------------0--------------------0------------------|
------0------------------------------0--3--0-----0--3-----5---5---0-------|

E|--0----------2----------------0—-3--5-----3p2p0--------------|
B|--0----[T]---2---------[T]-------------0---------------------|
G|--0----[A]---2---------[A]-----------------------------------|
D|-------[P]-------------[P]--2----0--0------------------------|
A|----2-----------5--2-----------------------------------------|
E|------------------------5------------------------------------|

-----------------------------7---5---0-------|
----------------[T]------------0---0----0h1-0|
----------------[A]---------------------0h2-0|
----------------[P]--------------------------|
-----0--------------------0------------------|
--------0--3--0-----0--3-----5---5---0-------|

E|--0----------2-------------------3-------------2-----------------------------|
B|--0----[T]---2---------[T]-------3-------[T]---2-----------[T]---------------|
G|--0----[A]---2---------[A]-------2-------[A]---2-----------[A]---------------|
D|-------[P]-------------[P]---------------[P]---------------[P]---------------|
A|----2-----------5--2---------2--------2------------5---2----------2----------|
E|------------------------5-----------------------------------5----------------|

Part 10
E|-------------------------------------------------------------------------------|
B|----0-—[T]--0----—--[T]--------0---------[T]-----0-------0-[T]-0---------------|
G|----0--[A]--0----2—-[A]--2-----0------2—-[A]--0----------0-[A]-0----2----------|
D|-------[P]-------0--[P]--0----------2----[P]--0------------[P]------0----------|
A|--------------2-------------------2-----------------2------------2-------------|
E|--0-------------------------0--------------------5-----0-----------------------|

-------------------------------------------|
--[T]--------0---[T]--2—-[T]—-0------------|
--[A]--2-----0---[A]--2—-[A]--0------------|
--[P]--0---------[P]--2--[P]-----4---2-----|
---------------------------------2---------|
-----------0-------------------------------|

E|----------------------------------------------------------|
B|----------------[T]---------------------------------------|
G|----------------[A]---------------------------------------|
D|----------------[P]----2-2h4--------2-2h4-----2-2h4-------|
A|--0---------0-----------------0---------------------------|
E|-----0---3-----------0-----------0---------0--------------|

E|--0----------2-------------------------------------------|
B|--0-----[T]--2--------[T]--------------------------------|
G|--0-----[A]--2--------[A]-------------2------------------|
D|--------[P]-----------[P]------2--5---0--5--4--2---------|
A|-----2----------5--2-------2-----------------------------|
E|-----------------------5---------------------------------|

E|------------------0--0--7--5--3--2-------------------5—-3-3--3--3-3---12--|
B|-------------[T]--------------------5-------[T]----0----0-0--5--0-0---12--|
G|-------------[A]----------------------5--4—-[A]--4---------------------9--|
D|-------------[P]----------------------------[P]------------------------9--|
A|--0-------0---------------------------------------------------------------|
E|----0--3----------------5--5----------------------------------------------|

Part 11
E|-------------------------------------------------------------------------------|
B|----0-—[T]--0----—--[T]--------0---------[T]-----0-------0-[T]-0---------------|
G|----0--[A]--0----2—-[A]--2-----0------2—-[A]--0----------0-[A]-0----2----------|
D|-------[P]-------0--[P]--0----------2----[P]--0------------[P]------0----------|
A|--------------2-------------------2-----------------2------------2-------------|
E|--0-------------------------0--------------------5-----0-----------------------|

-------------------------------------------|
--[T]--------0---[T]--2—-[T]—-0------------|
--[A]--2-----0---[A]--2—-[A]--0------------|
--[P]--0---------[P]--2--[P]-----4---2-----|
---------------------------------2---------|
-----------0-------------------------------|

E|----------------------------------------------------------------|
B|-------------[T]-----------[T]-------------[T]------------------|
G|-------------[A]---4—-4p2—-[A]----4—-4p2---[A]------4—-4p2------|
D|-------------[P]-----------[P]-------------[P]------------------|
A|---0------0-----------------------------------------------------|
E|-----0--3--------0--------------0----------------0--------------|

E|--0----------2-------------------3-------------2-----------------------------|
B|--0----[T]---2---------[T]-------3-------[T]---2-----------[T]---------------|
G|--0----[A]---2---------[A]-------2-------[A]---2-----------[A]---------------|
D|-------[P]-------------[P]---------------[P]---------------[P]---------------|
A|----2-----------5--2---------2--------2------------5---2----------2----------|
E|------------------------5-----------------------------------5----------------|

Part 12
E|--0--0-------0-----3-------3—-3p0--0-------0-------------------0--0------------|
B|--1--1--[T]--0-----1—-[T]--0--0----0—-[T]--0----0h3--[T]--0----1--1—-[T]-------|
G|--0--0—-[A]--0--0-----[A]--0--0----0—-[A]--0--0------[A]-------0--0—-[A]-------|
D|--2--2--[P]-----------[P]-------------[B]------------[B]-------------[P]-------|
A|--3--3-------3-------------2--2------------2-------------------3--3------------|
E|-------------------------------------------------------------------------------|

--0-----0h2-------0----------0-----6/7---6/3-----0--0-------0----3---------------|
--0-----0----[T]--0----------0-----7/8---8/5-----1--1--[T]--0----1--[T]—---------|
--0—-0-------[A]---------------0---8/9---7/4-----0--0--[A]--0—-0----[A]----------|
-------------[P]---------------------------------2--2--[P]----------[P]----------|
--3------------------------0---------------------3--3-------3--------------------|
---------------------------------------------------------------------------------|

--3—-3p0--0-------0---------------------------0----0-------------------------|
--0--0----0--[T]--0----0h3--[T]--0------1--3--1-—-----1---4--4--7—--7--[T]---|
--0--0----0--[A]--0--0------[A]--—------0--0--0--0--------4--2--4---4--[A]---|
-------------[P]------------[P]----------------------------------------[P]---|
--2--2------------2---------------------3--2--3-----------2--4--6------------|
-----------------------------------------------------------------------------|

Part 13
E|--3/5--3-----------------------------------------------|
B|----------5—3p0---------0-----0------------------------|
G|-----------------4p2p0-----2-----2---------------------|
D|-------------------------------------5--4--2-----------|
A|----------------------------------------------5--------|
E|-------------------------------------------------3-----|

Part 14
E|-0-------0--------------0--0------------------0-----0-------0-------|
B|-0—-[T}--0—3p0-—[T]-----0--0—-[T]—-3~p0—-[T]--0-----0—-[T]—-0--3p0--|
G|----[A]---------[A]-----------[A]--------[A]-----------[A]----------|
D|----[P]---------[P]-----------[P]--------[P]-----------[P]----------|
A|-----------2-----------------------2---------------------------2----|
E|--------------------0---------------------------0-------------------|

---------0--3-------5------3—-2p0-------------------------7---5---0-------|
-[T]-----0-----[T]------0--------------------[T]------------0---0----0h1-0|
-[A]-----------[A]---------------------------[A]---------------------0h2-0|
-[P]--------0—-[P]--0------0-----------------[P]--------------------------|
----------------------------------0--------------------0------------------|
------0------------------------------0--3--0-----0--3-----5---5---0-------|

E|--0----------2----------------0—-3--5-----3p2p0--------------|
B|--0----[T]---2---------[T]-------------0---------------------|
G|--0----[A]---2---------[A]-----------------------------------|
D|-------[P]-------------[P]--2----0--0------------------------|
A|----2-----------5--2-----------------------------------------|
E|------------------------5------------------------------------|

-----------------------------7---5---0-------|
----------------[T]------------0---0----0h1-0|
----------------[A]---------------------0h2-0|
----------------[P]--------------------------|
-----0--------------------0------------------|
--------0--3--0-----0--3-----5---5---0-------|
								2X
E|--0----------2-------------------3-------------2-----------------------------|
B|--0----[T]---2---------[T]-------3-------[T]---2-----------[T]---------------|
G|--0----[A]---2---------[A]-------2-------[A]---2-----------[A]---------------|
D|-------[P]-------------[P]---------------[P]---------------[P]---------------|
A|----2-----------5--2---------2--------2------------5---2----------2----------|
E|------------------------5-----------------------------------5----------------|

---3---x-x---2---------------|
---4---x-x---3---[T]—[T]-----|
---3---x-x---2---[A]—[A]-----|
---5---x-x---4---[P]-[P]-----|
---3---x-x---2---------------|
---3---------2---------------|

Part 15
			3X
E|-----------------------0-----|------------------------------------------------0--|
B|-----------------------0—[T]-|----------------------—-------------------------0--|
G|----0—-2/4--2--0--2/4----[A]-|----0--2/4--2--0----2/4--2--0----2/4--2--0--2/4----|
D|--2----------------------[P]-|-2---------------2-------------2-------------------|
A|-----------------------------|---------------------------------------------------|
E|-----------------------------|---------------------------------------------------|

--------------------------0--------------------------0-----0-7p5p0----------------|
-[T]----------------------0—[T]----------------------0-[T]-0------7p5p0-----------|
-[A]----0--2/4--2--0—-2/4---[A]----0--2/4--2--0--2/9---[A]-------------5p3p0------|
-[P]--2---------------------[P]--2---------------------[P]------------------5p4p0-|
----------------------------------------------------------------------------------|
----------------------------------------------------------------------------------|

Part 16								4X
E|--0----------2-------------------3-------------2-----------------------------|
B|--0----[T]---2---------[T]-------3-------[T]---2-----------[T]---------------|
G|--0----[A]---2---------[A]-------2-------[A]---2-----------[A]---------------|
D|-------[P]-------------[P]---------------[P]---------------[P]---------------|
A|----2-----------5--2---------2--------2------------5---2----------2----------|
E|------------------------5-----------------------------------5----------------|

---3--x-x--2--x-x--0~----|
---4--x-x--3--x-x--0~----|
---3--x-x--2--x-x--0~----|
---5--x-x--4--x-x--2~----|	\m/
---3--x-x--2--x-x--2~----|
---3-------2-------------|

There you have it~!
Comment plzzz.. =^w^=
Tap to rate this tab
 
# A B C D E F G H I J K L M N O P Q R S T U V W X Y Z