Song name
# A B C D E F G H I J K L M N O P Q R S T U V W X Y Z

Misc Unsigned Bands - Only - How To Hypnotize A Hobo tab

Band: O.N.L.Y.
Guitarist: Mad Eye
Tabber: Mad Eye


E|---------------------------------------------------------------------|
B|-------------------------------------------------12-12-12-12-9-9-9-9-|
G|-9-9-9-9-11-11-11-11-9-9-9-9-12-12-12-12-9-9-9-9---------------------|
D|9-9-9-9-9--9--9--9--9-9-9-9-9--9--9--9--9-9-9-9-9--9--9--9--9-9-9-9--|
A|---------------------------------------------------------------------|
E|---------------------------------------------------------------------|

E|--------------------------------------------------------------------|
B|-9---9---9---9---9---9---9---9-9---999---9~~------------------------|
G|---9---9---9---9---9---9---9---9---999---9~~------------------------|
D|9-9-9-9-9-9-9-9-9-9-9-9-9-9-9--9---999---9~~------------------------|
A|--------------------------------------------------------------------|
E|--------------------------------------------------------------------|

~~ = whammy down slowly till silent
Tap to rate this tab
# A B C D E F G H I J K L M N O P Q R S T U V W X Y Z