Song name
# A B C D E F G H I J K L M N O P Q R S T U V W X Y Z

Misc Unsigned Bands - Bmgissweetness - Sun Of The Rising House tab

Use Electric Guitar for last two chords... Tuning:(E A D G B E)

E  :--------3-----------------|5---------7-------8-7-0|
A  :2-------------------------|--7---------9----------|
D  :--2-------0---------------|-----------------------|
G  :----0-------0---0---0-----|----0---0-------0------|
B  :------0-------0---0-------|------0-------0--------|
E  :--------------------------|-----------------------|

E  :--------3-----------------|5---------7-------8-7-0--|
A  :2-------------------------|--7---------9------------|
D  :--2-------0---------------|-------------------------|
G  :------0-----0---0---0-----|----0---0-------0--------|
B  :----0---------0---0-------|------0-------0----------|
E  :--------------------------|-------------------------|

E  :------------------------|------------3-3-3-3--5-5|
A  :2--2-2-2-2-2-2-2-2-2-2-2|2-2-2~2-2-2-2-2-2-2--7-7|
D  :2--2-2-2-2-2-2-2-2-2-2-2|2-2-2-2-2-2-------------|
G  :------------------------|------------------------|
B  :------------------------|------------------------|
E  :------------------------|------------------------|

E  :-8-7-5-2-2-3-3-5-5--8-7-5|3-2---------------3-3-3---|
A  :10-9-7-2-2-2-2-7-7-10-9-7|5-4-2-2-2-2-2-2-2-2-2-2---|
D  :-------------------------|----2-2-2-2-2-2-2---------|
G  :-------------------------|--------------------------|
B  :-------------------------|--------------------------|
E  :-------------------------|--------------------------|

E  :5-5--8-7-5-----------3------|--5---------7---------8-7-0-|
A  :7-7-10-9-7-2-----------2----|----7---------9-----9-------|
D  :-----------2-2--------------|----------------------------|
G  :---------------0---0-----0--|0-----0---0-------0---------|
B  :-----------------0---------0|--------0-------0-----------|
E  :----------------------------|----------------------------|

E  :------3-3-3-3-3-5-5--8-7-5|--3-2-----------|3h-5--------------------|
A  :2-2-2-2-2-2-2-2-7-7-10-9-7|--5-4-2---------|-----3h-5---------------|
D  :2-2-2---------------------|------2---------|----------5h-3----------|
G  :--------------------------|----------------|---------------3-h2-----|
B  :--------------------------|----------------|------------------------|
E  :--------------------------|----------------|------------------------|

E  :----------------|---------5-5-7-5-------|-------------4-0----|
A  :----------------|-----------------------|-------------4-0w---|
D  :----------------|-----5-----5-5-7-7-5--7|-------------4-0----|
G  :----------------|--24-4-5--------------5|-5-----------4-0----|
B  :----------------|2-24-------------------|---5---------4-0----|
E  :----------------|-----------------------|-----5--5----4-0----|
Tap to rate this tab
# A B C D E F G H I J K L M N O P Q R S T U V W X Y Z