Song name
# A B C D E F G H I J K L M N O P Q R S T U V W X Y Z

Misc Unsigned Bands - Meri Lewa - Oshen tab

-------------------------------------------------------------------------------
			     Meri Lewa - Oshen
-------------------------------------------------------------------------------
Tabbed by: JovinF
Email: jvn_famor_shino@yahoo.com

Tuning: Standard

Intro/Verse/Chorus: reggae strumming
e|---4---6---8---4--------------------|\
B|---4---8---9---6--------------------| \
G|---5---8---10--6--------------------|  \
D|---6---8---10--6--------------------|  /  repeat
A|---6---6---8---4--------------------| /
E|---4---X---X---X--------------------|/

Tap to rate this tab
# A B C D E F G H I J K L M N O P Q R S T U V W X Y Z