Song name
# A B C D E F G H I J K L M N O P Q R S T U V W X Y Z

Misc Unsigned Bands - Commonly Used - Push tab

Intro

e|-------------------|
B|-------------------|
G|-------------------|
D|-------------------|
A|-------------------|
D|--7-5-3-2-0-2-3-2--|


Chorus pt. 1

e|----------------------------------------|
B|----------------------------------------|
G|--10---77-10-10-77777-10---77-10-10--7--|
D|--x--0000-x--x--00000-x--0000-x--x--00--|
A|--8--0000-8--8--00000-8--0000-8--8--00--|
D|--0--0000-0--0--00000-0--0000-0--0--00--|


Chorus pt. 2

e|-----------------------------------------|
B|-----------------------------------------|
G|--10---77-10-10-77777-10---77-10-xxxxxx--|
D|--x--0000-x--x--00000-x--0000-x--xxxxxx--|
A|--8--0000-8--8--00000-8--0000-8--xxxxxx--|
D|--0--0000-0--0--00000-0--0000-0--xxxxxx--|


Verse

e|----------------------------------------------------------------------------|
B|----------------------------------------------------------------------------|
G|----------------------------------------------------------------------------|
D|--7-7-77x-5-5-55555-3-3-33x-2-2-22222-0-0-000-2-2-22222--3-3-333-2--xxxxxx--|
A|--7-7-77x-5-5-55555-3-3-33x-2-2-22222-0-0-000-2-2-22222--3-3-333-2--xxxxxx--|
D|--7-7-77x-5-5-55555-3-3-33x-2-2-22222-0-0-000-2-2-22222--3-3-333-2--xxxxxx--|


Chorus pt. 1

e|----------------------------------------|
B|----------------------------------------|
G|--10---77-10-10-77777-10---77-10-10--7--|
D|--x--0000-x--x--00000-x--0000-x--x--00--|
A|--8--0000-8--8--00000-8--0000-8--8--00--|
D|--0--0000-0--0--00000-0--0000-0--0--00--|


Chorus pt. 2

e|-----------------------------------------|
B|-----------------------------------------|
G|--10---77-10-10-77777-10---77-10-xxxxxx--|
D|--x--0000-x--x--00000-x--0000-x--xxxxxx--|
A|--8--0000-8--8--00000-8--0000-8--xxxxxx--|
D|--0--0000-0--0--00000-0--0000-0--xxxxxx--|


Verse

e|----------------------------------------------------------------------------|
B|----------------------------------------------------------------------------|
G|----------------------------------------------------------------------------|
D|--7-7-77x-5-5-55555-3-3-33x-2-2-22222-0-0-000-2-2-22222--3-3-333-2--xxxxxx--|
A|--7-7-77x-5-5-55555-3-3-33x-2-2-22222-0-0-000-2-2-22222--3-3-333-2--xxxxxx--|
D|--7-7-77x-5-5-55555-3-3-33x-2-2-22222-0-0-000-2-2-22222--3-3-333-2--xxxxxx--|


Verse

e|----------------------------------------------------------------------------|
B|----------------------------------------------------------------------------|
G|----------------------------------------------------------------------------|
D|--7-7-77x-5-5-55555-3-3-33x-2-2-22222-0-0-000-2-2-22222--3-3-333-2--xxxxxx--|
A|--7-7-77x-5-5-55555-3-3-33x-2-2-22222-0-0-000-2-2-22222--3-3-333-2--xxxxxx--|
D|--7-7-77x-5-5-55555-3-3-33x-2-2-22222-0-0-000-2-2-22222--3-3-333-2--xxxxxx--|


Chorus pt. 1

e|----------------------------------------|
B|----------------------------------------|
G|--10---77-10-10-77777-10---77-10-10--7--|
D|--x--0000-x--x--00000-x--0000-x--x--00--|
A|--8--0000-8--8--00000-8--0000-8--8--00--|
D|--0--0000-0--0--00000-0--0000-0--0--00--|


Chorus pt. 2

e|-----------------------------------------|
B|-----------------------------------------|
G|--10---77-10-10-77777-10---77-10-xxxxxx--|
D|--x--0000-x--x--00000-x--0000-x--xxxxxx--|
A|--8--0000-8--8--00000-8--0000-8--xxxxxx--|
D|--0--0000-0--0--00000-0--0000-0--xxxxxx--|


Break pt. 1

e|---------------------------------------------------------------------------|
B|---------------------------------------------------------------------------|
G|--9/10-xxxx-5/7-xxxx--9/10-xxxx-5/7-xxxx--9/10-xxxx-5/7-xxxx--9/10-xxxx-7--|
D|--x-x--xxxx-x-x-xxxx--x-x--xxxx-x-x-xxxx--x-x--xxxx-x-x-xxxx--x-x--xxxx-x--|
A|--7-8--xxxx-3/5-xxxx--7-8--xxxx-3/5-xxxx--7-8--xxxx-3/5-xxxx--7-8--xxxx-5--|
D|--0-0--xxxx-0-0-xxxx--0-0--xxxx-0-0-xxxx--0-0--xxxx-0-0-xxxx--0-0--xxxx-0--|


Break pt. 2

e|-------------------------------------|
B|-------------------------------------|
G|--10 10-x-x-9-9-x-x-8-8-x-x-7-7-x-x--|
D|--x--x--x-x-x-x-x-x-x-x-x-x-x-x-x-x--| x3
A|--8--8--x-x-7-7-x-x-6-6-x-x-5-5-x-x--|
D|--0--0--0-0-0-0-0-0-0-0-0-0-0-0-0-0--|


Break pt. 3

e|--------------------------------|
B|--------------------------------|
G|--10 10-x-x-9-9-x-x-7--7--7--7--|
D|--x--x--x-x-x-x-x-x-x--x--x--x--| x1
A|--8--8--x-x-7-7-x-x-5--5--5--5--|
D|--0--0--0-0-0-0-0-0-0--0--0--0--|


Break pt. 2

e|-------------------------------------|
B|-------------------------------------|
G|--10 10-x-x-9-9-x-x-8-8-x-x-7-7-x-x--|
D|--x--x--x-x-x-x-x-x-x-x-x-x-x-x-x-x--| x3
A|--8--8--x-x-7-7-x-x-6-6-x-x-5-5-x-x--|
D|--0--0--0-0-0-0-0-0-0-0-0-0-0-0-0-0--|


Break pt. 3

e|--------------------------------|
B|--------------------------------|
G|--10 10-x-x-9-9-x-x-7--7--7--7--|
D|--x--x--x-x-x-x-x-x-x--x--x--x--| x1
A|--8--8--x-x-7-7-x-x-5--5--5--5--|
D|--0--0--0-0-0-0-0-0-0--0--0--0--|


Chorus pt. 1

e|----------------------------------------|
B|----------------------------------------|
G|--10---77-10-10-77777-10---77-10-10--7--|
D|--x--0000-x--x--00000-x--0000-x--x--00--|
A|--8--0000-8--8--00000-8--0000-8--8--00--|
D|--0--0000-0--0--00000-0--0000-0--0--00--|


Chorus pt. 2

e|-----------------------------------------|
B|-----------------------------------------|
G|--10---77-10-10-77777-10---77-10-xxxxxx--|
D|--x--0000-x--x--00000-x--0000-x--xxxxxx--|
A|--8--0000-8--8--00000-8--0000-8--xxxxxx--|
D|--0--0000-0--0--00000-0--0000-0--xxxxxx--|


Chorus pt. 3

e|----------------------------------|
B|----------------------------------|
G|--x-xxxxxx-xx-xxxx-x-xxxxxx-xx-x--|
D|--x-xxxxxx-xx-xxxx-x-xxxxxx-xx-x--|
A|--x-xxxxxx-xx-xxxx-x-xxxxxx-xx-x--|
D|--x-xxxxxx-xx-xxxx-x-xxxxxx-xx-x--|


Chorus pt. 2

e|----------------------------------------|
B|----------------------------------------|
G|--10---77-10-10-77777-10---77-10-xxxxx--|
D|--x--0000-x--x--00000-x--0000-x--xxxxx--|
A|--8--0000-8--8--00000-8--0000-8--xxxxx--|
D|--0--0000-0--0--00000-0--0000-0--xxxxx--|

http://www.myspace.com/commonlyusedfanpage
Tap to rate this tab
# A B C D E F G H I J K L M N O P Q R S T U V W X Y Z