Song name
# A B C D E F G H I J K L M N O P Q R S T U V W X Y Z

Misc Unsigned Bands - Jawkneeyeah - Piece Of Meat tab

Love this song x3
http://www.youtube.com/watch?v=2BvjBO7DzjA

I don't think it 100% ::: comment if you find a mistake ;D

-Tuning: normal
-No Capo
-My first tab (I play for about 3 years now)

--------------------------------------------------------------------------

Chords used trough the song: Am C G D

INTRO

E\------------------------|
B\------------------------|
G\------------------------|
D\------------------------|
A\---0--0/7---------------|
E\------------------------|

And all the rest goes like this:::


           Am                   C                  G                   D
E\--------------------------------0---0-0------------3---3-3---------2--2-2--|
B\----------1---1-1---------------1---1-1------------0---0-0---------3--3-3--|
G\----------2---2-2---------------0---0-0------------0---0-0---------2--2-2--|
D\----------2---2-2---------------2---2-2------------0---0-0----0-0----------|
A\---0-0------------------3-3------------------------2---2-2-----------------|
E\--------------------------------------------3-3----------------------------|


For the beginners::: You take the A chord and play the bass note (from that chord, Ex.: 
bass from the C chord is the 3 fret on the A-string) and then you strum the other notes 
the bass note ( I couldn't tell if he used them or not :S)
The strumming I prefer here is :::  ↓  ↓↑


That's all I think,
Cheers
 ;D
Tap to rate this tab
# A B C D E F G H I J K L M N O P Q R S T U V W X Y Z