Song name
# A B C D E F G H I J K L M N O P Q R S T U V W X Y Z

Misc Unsigned Bands - Club Penguin - Hard Rock tab

Club Penguin Igloo soundtrack "Hard Rock" tab
tabbed by Aaron Yao
Drop D tuning

e-------18~------------11^-----|
B------------------------------|
G------------------------------|
D-0-3-0-----3-0--0-3-0-----3-5-|
A-0-3-0-----3-0--0-3-0-----3-5-|
D-0-3-0-----3-0--0-3-0-----3-5-|

e-------18~------------8-8--8-8-|
B-------------------------------|
G-------------------------------|
D-0-3-0-----3-0--0-3-0----------|
A-0-3-0-----3-0--0-3-0----------|
D-0-3-0-----3-0--0-3-0----------|

e-------------|
B-------------|
G-------------|
D-5----5--5-0-|
A-5----5--5-0-|
D-5----5--5-0-|

e---------------------------------|
B---------------------------------|
G---------------------------------|
D-5-X-X-X-3-X-X-X-5-X-X-X-6-5-3-3-|
A-5-X-X-X-3-X-X-X-5-X-X-X-6-5-3-3-|
D-5-X-X-X-3-X-X-X-5-X-X-X-6-5-3-3-| x2

e----------------------------------|
B----------------------------------|
G----------------------------------|
D-5-5-5-3-5-1-3-1-X-X-XXXX-XXX-X-X-|
A-5-5-5-3-5-1-3-1-X-X-XXXX-XXX-X-X-|
D-5-5-5-3-5-1-3-1-X-X-XXXX-XXX-X-X-| x2

Thank you please rate and comment.:)

Tap to rate this tab
# A B C D E F G H I J K L M N O P Q R S T U V W X Y Z