Song name
# A B C D E F G H I J K L M N O P Q R S T U V W X Y Z

Misc Unsigned Bands - Memories - Austin Braswell tab

Sorry If its confusing, but a great song none the less:
*=Harmonics
\=Slide Up
/=Slide Down
pm=Palm Mute

E|---------------------------------------------------------------------------|
B|----------------------------------------------------3----------------------|
G|----------------------------------------------------2----------------------|
D|-12*---------7--------7----------7h9p7-----7h9p7----0---------5--------5---|
A|-12*-------5---5----5---5------7---------7----------0-------3---3---3----3-|
D|-12*---555--------5--------5\7---------7----------7/0-----3-------3--------|

E|---------------------------------------------------------------------------|
B|---------------------------------------------------------------------------|
G|----------------------------0h7p5p3p0--------------------------------------|
D|-pm5/0---pm7/4---2-------2------------0--------0-------------12*-----------|
A|-pm3/0---pm5/2---2----3---------------0--------0-------------12*-----------|
D|-pm5/0---pm7/4---2--------------------0000000--0-------------12*-----------|

E|---------------------------------------------------------------------------|
B|-------------------------------------------------------12*-----------------|
G|---------------------------------------------------------------------------|
D|-------------7--------7----------7h9p7-----7h9p7----0---------5--------5---|
A|-----------5---5----5---5------7---------7----------0-------3---3---3----3-|
D|-------535--------5--------5\7---------7----------7/0-----3-------3--------|

E|---------------------------------------------------------------------------|
B|---------------------------------------------------------------------------|
G|---------------------------------------------------------------------------|
D|-pm5/0---pm7/4---2----3--1--00---5--7--8---2--0----------------------------|
A|-pm3/0---pm5/2---2----3--1--00---5--7--8---2--0----------------------------|
D|-pm5/0---pm7/4---2----3--1--00---5--7--8---2--0----------------------------|

E|--------------------10------------------------------------------------------|
B|-----------------------8----------------------------------------------------|
G|---------------7-8-------10----8--------------------------------------------|
D|------------5---------------7---------------------2-------2------2----3-2-0-|
A|--------pm7---------------------7----2------------2-------2------2----3-2-0-|
D|----------------------------------------0---000---2--000--2--000-2----3-2-0-|

E|---------------------------------------------------------------------------|
B|---------------------------------------------------------------------------|
G|---------------------------------------------------------------------------|
D|--------------4h5---------------4h5--------------4h5--5\7--5-4-4h5p4-------|
A|---pm7-777-7------7-7--5-555-5------5-5--3-333-3----------------------7----|
D|---------------------------------------------------------------------------|

E|---------------------------------------------------------------------------|
B|---------------------------------------------------------------------------|
G|---------------------------------------------------------------------------|
D|----------9\10-------------9\10------------------9\10-10\12-10-9-9h10p9----|
A|--7-777-7------7-7-9-999-9------9-9-10-101010-10------------------------7--|
D|---------------------------------------------------------------------------|
(repeat twice)
E|---------------------------------------------------------------------------|
B|---------------------------------------------------------------------------|
G|---------------------------------------------------------------------------|
D|-0----------------------------0------------12*-----------------------------|
A|-0------------0h3--6-8--------0------------12*-----------------------------|
D|-0------0-0-0----------0-0-0--0------------12*-----------------------------|

E|--0--0--0--0--0--0--0--0--0--0-0-0-0---0-0----0----0----0--0---0-----------|
B|-----------------5--5--5--5--7-7-7-7h9-9-9----10p7-7h9--12-12--10p9p7h9----|
G|---------------------------------------------------------------------------|
D|---------------------------------------------------------------------------|
A|---------------------------------------------------------------------------|
D|---------------------------------------------------------------------------|

E|-0-0--0-----0--0------0---------0----0-00-0----0-00--0---------------------|
B|-1010-10h12-12-12h14--14p12p10--10p9-9-99-10p9-9-99--10p9------------------|
G|---------------------------------------------------------------------------|
D|---------------------------------------------------------------------------|
A|---------------------------------------------------------------------------|
D|---------------------------------------------------------------------------|
(play 3 times or go find Ling Ling's balls)
E|--0--0--00----0-0------------------------12*-------------------------------|
B|--0--0--00h1--1-1------3----3-----3~---------------------------------------|
G|--2--2--22----2-2------5----5-----5~---------------------------------------|
D|--2--2--22----2-2------5----5-----5~---------------------------------------|
A|---------------------------------------------------------------------------|
D|---------------------------------------------------------------------------|

E|--0--0---00-----0--0--------3-3--x-x---3-3-x----3--------------------------|
B|--0--0---00h1--1--1---------3-3--x-x---3-3-x----3--------------------------|
G|--2--2---22-----2--2--------5-5--x-x---5-5-x----5--------------------------|
D|--2--2---22-----2--2--------5-5--x-x---5-5-x----5--------------------------|
A|---------------------------------------------------------------------------|
D|---------------------------------------------------------------------------|
(play 3 times again, ambient sounds in the background)
Tap to rate this tab
# A B C D E F G H I J K L M N O P Q R S T U V W X Y Z