Song name
# A B C D E F G H I J K L M N O P Q R S T U V W X Y Z

Misc Unsigned Bands - Repo The Genetic Opera - Legal Assassin tab

Let the Monster Rise from Repo! the Genetic Opera


Strings opening pt. 1
e|-9-8-6---------|---------------------|
B|-------9-7-6-5~|-4-4-4-4-4-4-4-4-4-3~|
G|---------------|---------------------| (2x)
D|---------------|---------------------|
A|---------------|---------------------|
E|---------------|---------------------|

"Didn't I tell you..." (pt. 2)

Note: I like to palm mute this part.

e|----------------|
B|----------------|
G|----------------|
D|----------------|
A|------5-5-4-4---|
E|--3-3--------6-6|



Guitar Kicks in!
"Every word is a lie!"

e|-----------------|
B|-----------------|
G|---------X-X-----|  (8x)
D|---------X-X-----| 
A|---------X-X-5-5-|
E|-5-3-1-3-X-X-3-3-|

Bass/Shilo
Back to strings part 2

When Nathan starts singing guitar occasionally plays this

e|--------|
B|--------|
G|--------|
D|--------|
A|-3-5-5--|
E|-1-3-3--|

Back to Guitar kicking in
Main Riff variation/Tempo change


e|-----------------|-----------------|
B|-----------------|-----------------|
G|---------X-X-----|-----------------|
D|---------X-X-----|---------X-X-5-5-|
A|---------X-X-5-5-|-5-3-1-3-X-X-3-3-|
E|-5-3-1-3-X-X-3-3-|---------X-X-----|

End on:


e|-----|
B|-----|
G|-----|
D|-5---|
A|-5---|
E|-3---|
Tap to rate this tab
# A B C D E F G H I J K L M N O P Q R S T U V W X Y Z