Song name
# A B C D E F G H I J K L M N O P Q R S T U V W X Y Z

Misc Unsigned Bands - Objects Of Desire - Valentines Days Over tab

VALENTINES DAY BY OBJECTS OF DESIRE
TAB
() - PALM MUTE


                            INTRO
e|----7------7-----------5------5---------3------3---------------------------|
b|------7------7-----------5------5---------3------3-------------------------|
g|--7-----7------7----5------5------5---3-----3------3-----------------------|
D|---------------------------------------------------------------------------|
A|---------------------------------------------------------------------------|
E|---------------------------------------------------------------------------| x3

                               VERSE
e|---------------------------------------------------------------------------|
b|---------------------------------------------------------------------------|
g|---------------------------------------------------------------------------|
D|-----6--(6)--(6)--6--(6)--(6)--6--(6)--(6)--6------------------------------|
A|-----6--(6)--(6)--6--(6)--(6)--6--(6)--(6)--6------------------------------|
E|-----4--(4)--(4)--4--(4)--(4)--4--(4)--(4)--4------------------------------|

e|---------------------------------------------------------------------------|
b|---------------------------------------------------------------------------|
g|---------------------------------------------------------------------------|
D|-----8--(8)--(8)--8--(8)--(8)--8--(8)--(8)--8------------------------------|
A|-----8--(8)--(8)--8--(8)--(8)--8--(8)--(8)--8------------------------------|
E|-----6--(6)--(6)--6--(6)--(6)--6--(6)--(6)--6------------------------------|


e|---------------------------------------------------------------------------|
b|---------------------------------------------------------------------------|
g|---------------------------------------------------------------------------|
D|-----6--(6)--(6)--6--(6)--(6)--6--(6)--(6)--6------------------------------|
A|-----6--(6)--(6)--6--(6)--(6)--6--(6)--(6)--6------------------------------|
E|-----4--(4)--(4)--4--(4)--(4)--4--(4)--(4)--4------------------------------|

e|---------------------------------------------------------------------------|
b|---------------------------------------------------------------------------|
g|---------------------------------------------------------------------------|
D|-----8--(8)--(8)--8--(8)--(8)--8--(8)--(8)--8------------------------------|
A|-----8--(8)--(8)--8--(8)--(8)--8--(8)--(8)--8------------------------------|
E|-----6--(6)--(6)--6--(6)--(6)--6--(6)--(6)--6------------------------------|
                            PRE-CHORUS
e|----7------7-----------5------5---------3------3---------------------------|
b|------7------7-----------5------5---------3------3-------------------------|
g|--7-----7------7----5------5------5---3-----3------3-----------------------|
D|---------------------------------------------------------------------------|
A|---------------------------------------------------------------------------|
E|---------------------------------------------------------------------------| 
                               CHORUS
e|---------------------------------------------------------------------------|
b|---------------------------------------------------------------------------|
g|---------------------------------------------------------------------------|
D|------7--(7)--(7)--7------7--(7)--(7)--7------7--(7)--(7)--7---------------|
A|------7--(7)--(7)--7------7--(7)--(7)--7------7--(7)--(7)--7---------------|
E|------5--(5)--(5)--5------5--(5)--(5)--5------5--(5)--(5)--5---------------|x2

                               VERSE
e|---------------------------------------------------------------------------|
b|---------------------------------------------------------------------------|
g|---------------------------------------------------------------------------|
D|-----6--(6)--(6)--6--(6)--(6)--6--(6)--(6)--6------------------------------|
A|-----6--(6)--(6)--6--(6)--(6)--6--(6)--(6)--6------------------------------|
E|-----4--(4)--(4)--4--(4)--(4)--4--(4)--(4)--4------------------------------|

e|---------------------------------------------------------------------------|
b|---------------------------------------------------------------------------|
g|---------------------------------------------------------------------------|
D|-----8--(8)--(8)--8--(8)--(8)--8--(8)--(8)--8------------------------------|
A|-----8--(8)--(8)--8--(8)--(8)--8--(8)--(8)--8------------------------------|
E|-----6--(6)--(6)--6--(6)--(6)--6--(6)--(6)--6------------------------------|


e|---------------------------------------------------------------------------|
b|---------------------------------------------------------------------------|
g|---------------------------------------------------------------------------|
D|-----6--(6)--(6)--6--(6)--(6)--6--(6)--(6)--6------------------------------|
A|-----6--(6)--(6)--6--(6)--(6)--6--(6)--(6)--6------------------------------|
E|-----4--(4)--(4)--4--(4)--(4)--4--(4)--(4)--4------------------------------|

e|---------------------------------------------------------------------------|
b|---------------------------------------------------------------------------|
g|---------------------------------------------------------------------------|
D|-----8--(8)--(8)--8--(8)--(8)--8--(8)--(8)--8------------------------------|
A|-----8--(8)--(8)--8--(8)--(8)--8--(8)--(8)--8------------------------------|
E|-----6--(6)--(6)--6--(6)--(6)--6--(6)--(6)--6------------------------------|
                 
                               CHORUS
e|---------------------------------------------------------------------------|
b|---------------------------------------------------------------------------|
g|---------------------------------------------------------------------------|
D|------7--(7)--(7)--7---------7--(7)--(7)--7---------7--(7)--(7)--7---------|
A|------7--(7)--(7)--7---------7--(7)--(7)--7---------7--(7)--(7)--7---------|
E|------5--(5)--(5)--5---------5--(5)--(5)--5---------5--(5)--(5)--5---------|x2
                                  END RIFF
e|----7------7-----------5------5---------3------3---------------------------|
b|------7------7-----------5------5---------3------3-------------------------|
g|--7-----7------7----5------5------5---3-----3------3-----------------------|
D|---------------------------------------------------------------------------|
A|---------------------------------------------------------------------------|
E|---------------------------------------------------------------------------| 
Tap to rate this tab
 
# A B C D E F G H I J K L M N O P Q R S T U V W X Y Z