Song name
# A B C D E F G H I J K L M N O P Q R S T U V W X Y Z

Misc Unsigned Bands - Turbyne - In The Famine Of Reason tab

In the Famine Of Reason

Tuning
1 d
2 a
3 f
4 c
5 g
6 c


Clean intro                       x7     Clean intro end

|------3------------------------------{------3-----------------------------------|
|---3---3---5----------7---7---7-----{----3---3---2------------------------------|
|-1-------3---3------5---5---5---5---{--1-------4---4----------------------------|
|---------------0--------------------{----------------0--------------------------|

Heavy intro
                                              X6
|-------------------------------------3------------------------------------------|
|-----------------------------------3---3---2------------------------------------|
|---------------------------------1-------4---4----------------------------------|
|-0---0-0-0-0-0-0-0-0-0-0-0-0-0-0------------------------------------------------|

Intro Augmented
                                                                           X4
|------------------------------------------------------------------------------|
|------------------------------------------------------------------------------|
|---------------------------------1-1-1-1-1-1-1-1-x-4-4-4-4-4-4-4--------------|
|-0---0-0-0-0-0-0-0-0-0-0-0-0-0-0----------------------------------------------|

Main Riff

|-----------------------------------(----------------------------------------------|
|-----------------------------------(----------------------------------------------|
|--6-5------------------------------(-6-5------------------------------------------|
|------0-0-0-0-0----0-0-0-0-0 1-0-0-(-----0-0-0-0-1--0-0-0-0-1-3-0-0---------------|

|--------------------------------(-------------------------------------------------|
|--------------------------------(-------------------------------------------------|
|-6-5----------------------------(--6-5--------------------------------------------|
|-----0-0-0-0-0--0-0-0-0-0-1-0-0-(------0-0-0-0-0-1--0-0-0-0-1-4-0-0---------------|
Verse Riff

|-----------------------------------------------------------------------------------|
|---------------------------3---------------------------3-----4---------------------|
|-5---5---5-6-5-3-5---5---5---6-3-5---5---5-6-5-3-6-5-3---6-5---6-------------------|
|---0---0-----------0---0-----------0---0-------------------------------------------|

|------------------------------------------------------------------------------------|
|-------------------------------------------------------4-----7----------------------|
|-5---5---5-6-5-3-5---5---5-1-0---5---5---5-6-5-3-6-5-3---6-5---6--------------------|
|---0---0-----------0---0-------1---0---0--------------------------------------------|

Down beat verse

|---------------------------------------------------------------------------|
|---------------------------------------------------------------------------|
|---------------------------------------------------------------------------|
|--0- -0- -0-1-0-1-0- -0- -0-1-0-1--0- --0- -0-1-0-1-3-1-0-3-1-0-4-1---------

Guitar Harm Pre Chorus

|-------------------------------(-------------------------------------|
|----------------------h-p------(-------------------------------------|
|------5---5----------3-5-3-0---(--------5---5------------------------|
|3-0-0---0----0-0-0-0---------5-(--3-0-0---0---3-3-3-3-3-5-5-5--------|                  
                                                      X2
|--------------------------(------------------------------------------|
|-----------------------h-p------(------------------------------------|
|-------5---5----------3-5-3-0---(------------------------------------|
|-3-0-0---0----0-0-0-0---------5-(---3-3-3-3-3-3-3-3-3-5-5-5-5-5-5-5--|
Chorus

|-----------------------------------------------------------------------------------|
|-------------------------3-5---5-7---3-0-----------------2---2-3-2-----------------|
|-------------------3-7---------------------------1-3---3-------3-------------------|
|--3-0-0-0-0----0-0-----0-----0----------0-0-0--0-0---------------------------------|

                                                    End 1              End 2
|-------------------------------------------------/-------------2-3-/--------------------|
|------------------------3-5---5-7-3-0------------/-------2-3-5-----/--------------------|
|------------------3-7----------------------------/-0-1-3-----------/--------------------|
|--3-0-0-0-0---0-0-----0-----0---------0-0-0---0-0/-----------------/-0-7-8--0-8-10------|
                                                                         X3
Interlude chords

|--------------------------------------------------------------|
|--------------------------------------------------------------|
|-1---1---1-1-1-------------------3---3--3-3-3-----------------|
|----------------0---0---0-0-0-0---------------5--5---5-5-5-5--|

|------------------------------------------------------------------------------|
|------------------------------------------------------------------------------|
|-1---1---1-1-1-1---1--1-1-1-1-3----3---3-3-3--3----3----3-3-3-3---------------|
|------------------------------------------------------------------------------|

Robs solo

|------------/-----------------------------------------------------------------|
|------------/-----------------------------------------------------------------|
|--3-5-----5-/--3-5-----5----------3---3-3-3-----------------------------------|
|------0-0---/------0-0----3---3-----------------------------------------------|


|------------/---------------------------------------------------------------------|
|------------/---------------------------------------------------------------------|
|-3--5-----5-/-3-5-----5---8--8--3-3-3-3-------------------------------------------|
|------0-0---/-----0-0-------------------------------------------------------------|

Drum break

|-----/---/---/--------------------------------------------------------------------|
|-----/---/---/--------------------------------------------------------------------|
|-----/---/---/--------------------------------------------------------------------|
|--0--/-8-/-10-/-------------------------------------------------------------------|


Clean intro, Clean intro  end, Heavy intro, Augmented intro, Dead note (c), Main Riff,
Riff, Down beat verse, Guitar harm pre chorus, chorus, Dead note (c), Verse riff, down
verse, verse riff, down beat verse, guitar harm pre chorus, chorus, Interlude chords, 
solo riff, interlude chords (Calums solo) ,drum break,interlude chords, Chorus, interlude
verse riff end
Tap to rate this tab
# A B C D E F G H I J K L M N O P Q R S T U V W X Y Z