Song name
# A B C D E F G H I J K L M N O P Q R S T U V W X Y Z

Misc Unsigned Bands - Bears With Guns - Lady Of Torment tab

the riff behind the solo is played continuously until the end.

e:------------------|
B:------------------|
G:------------------|
D:------0-----0---0-|    repeat until the end.
A:----------1---0---|
D:--0-0---0---------|

Solo

e:--------------------------6--5--3-------------------|
B:---6~-5~-3~~---6~-8~-3~~-----------6-5-3------------|
G:------------------------------------------3~-5~-7~~-|
D:----------------------------------------------------|
A:----------------------------------------------------|
D:----------------------------------------------------|

e:----------------------------------------------------|
B:----------------------------------------------------|
G:---3~-2~------------------------3~-2~---------------|
D:---------3~-3-2-0---3~-5~-2-3---------3~-3-2-0------|
A:----------------------------------------------------|
D:----------------------------------------------------|

e:----------------------------------------------------|
B:----------------------------------------------------|
G:----------------------------------------------------|
D:---1--0---------------------------------------------|
A:---------1--0---------------------------------------|
D:----------------0-----------------------------------|

that's it. bad times - sucks to be us.
Tap to rate this tab
 
# A B C D E F G H I J K L M N O P Q R S T U V W X Y Z