Song name
# A B C D E F G H I J K L M N O P Q R S T U V W X Y Z

Misc Unsigned Bands - Last Of The Believers - Throwing Matches tab

 This song is in half step down.(Making the other tabs on this site slightly inaccurate.)
Enjoy and put any corrections in your comments or email them to me. Be sure to listen to 
song while learning it to ensure you get the timing right.

			     Throwing Matches - Last of the Believers
-------------------------------------------------------------------------------
Email:ChamsRock@Gmail.com
Tabbed by: ChamsRock

Tuning:1/2 step down(eb Bb Gb Db Ab Eb)
Intro

e|-----------------------------------------------------------------------------|
B|-----------------------------------------------------------------------------|
G|-----------------------------------------------------------------------------|
D|666666666666 666666666666----------------------------------------------------|
A|444444444444 444444444444----------------------------------------------------|
E|-------------555555555555----------------------------------------------------|

e|-------------------------------------------------------------------------|
B|-------------------------------------------------------------------------|
G|------------------------Lead Comes in here ---------------------------V--|
D|66666666666--99999999999--66666666666--99999999999-----------------------|
A|44444444444--77777777777--44444444444--77777777777-----------------------|
E|-------------------------^-----------------------------------------------|
           Lead Part
e|---------000-0-00-------------------------------------------------------------|
B|---------555s7-55-4--4-5-7-2-2p0----------------------------------------------|
G|--------------------4---------------------------------------------------------|
D|------------------------------------------------------------------------------|
A|------------------------------------------------------------------------------|
E|------------------------------------------------------------------------------|

Verse
e|-----------------------------------------------------------------------------|
B|-----------------------------------------------------------------------------|
G|-----------------------------------------------------------------------------|
D|-66-99------------66--99-----------66-99----------66-99----------------------|
A|-44-77-99-77777---44--77--66-77777-44-77-99-77777-44-77-666--7---------------|
E|-------77-55555-----------44-55555-------77-55555-------444--5---------------|
Chorus
e|----------------------------------------------------|
B|----------------------------------------------------|
G|-------------------------V Lead comes in here. -----|
D|66666666666--99999999999--66666666666--99999999999--|
A|44444444444--77777777777--44444444444--77777777777--|
E|-------------------------^--------------------------|
           Lead Part
e|---------000-0-00-------------------------------------------------------------|
B|---------555s7-55-4--4-5-7-2-2p0----------------------------------------------|
G|--------------------4---------------------------------------------------------|
D|------------------------------------------------------------------------------|
A|------------------------------------------------------------------------------|
E|------------------------------------------------------------------------------|
Bridge1: Bass
Bridge 2
e|-----------------------------------------------------------------------------|
B|-----------------------------------------------------------------------------|
G|-----------------------------------------------------------------------------|
D|-66666666----------99999999--------------------------------------------------|
A|-44444444-77777777-77777777-99999999-----------------------------------------|
E|----------55555555----------77777777-----------------------------------------|

Order:
Intro x1
Verse x1
Chorus x1
Verse x1
Chorus x1
Bridge 1 x2
Bridge 2 x4
Chorus x1

| /  slide up
| \  slide down
| h  hammer-on
| p  pull-off
| ~  vibrato
| +  harmonic
| x  Mute note
===============================================================================
Tap to rate this tab
 
# A B C D E F G H I J K L M N O P Q R S T U V W X Y Z