Song name
# A B C D E F G H I J K L M N O P Q R S T U V W X Y Z

Misc Unsigned Bands - Guati Tamales - Los Burritos tab

my first tab i need opinoins
E mail this foo at guatitamales@ymail.com plz foos
this is a lil fast
guitar1=lead 
guitar2=rhythm
   guitar1          x8                        guitar2 
e|--------------|----------|      |---------------------------------|
b|--------------|----------|      |---------------------------------|bout 9
g|--------------|----------|      |---------------------------------| times
d|--3-3-3--3333-|--3--3333-|      |--333333333333333\222222222222222|
a|--4-4-4--4444-|--4--4444-|      |--444444444444444\333333333333333|
e|--4-4-4--4444-|--4--4444-|      |--444444444444444\333333333333333|

Both Play this                                 guitar1 moves to this
              x9                                after 6th time play 3x    
|---------------------------------------------|-----------------------|
|---------------------------------------------|-----------------------|
|---------------------------------------------|-----------------------|
|---8-------x-------8-------x-------8-------x-|-----------------------|
|---8-------x-------8-------x-------8-------x-|-----------------------|
|---6-66-66-8-66-66-6-66-66-8-66-66-6-66-66-8-|-8-88-88--*8888*-------|
 reunite and play this
|------------------------------------------------|
|------------------------------------------------|
|------------------------------------------------|
|---8--------------8--------------8--------------|
|---8--------------8--------------8--------------|x15 on both
|---6-66-66-*8888*-6-66-66-*8888*-6-66-66-*8888*-|

its all i got 4 now im working on more
Tap to rate this tab
 
# A B C D E F G H I J K L M N O P Q R S T U V W X Y Z