Song name
# A B C D E F G H I J K L M N O P Q R S T U V W X Y Z

Misc Unsigned Bands - Get Scared - If Only She Knew Voodoo Like I Do tab

get scared if only she knew voodoo like i do tab

by ADVER

x-mute
/ \-slide
*-pinch harmonic
#-natural harmonic
b-bend
~-let ring/vibrato


drop d


intro
g1
e-----------------------------------------------------|
b-----------------------------------------------------|
g-4---4---4---4-3---3---3---3-4---4---4---4-3---3---2-|
d-4-0-4-0-4-0-4-3-0-3-0-3-0-3-4-0-4-0-4-0-4-3-0-3-0-2-|
a-2-0-2-0-2-0-2-1-0-1-0-1-0-1-2-0-2-0-2-0-2-1-0-1-0-0-|
D---0---0---0-----0---0---0-----0---0---0-----0---0---|

g1
2nd time end
e------xxx---xxx-|
b------xxx---xxx-|
g-4--2-xxx-3-xxx-|
d-4--2-xxx-3-xxx-|
a-2--0-xxx-1-xxx-|
d------xxx---xxx-|

g2
e----------------------------------------------|
b----------------------------------------------|
g-6p7-6p7-6-----------6p7-6p7-6----------------|
d-----------9-8-9-999------------9-7777-888-9\-|
a----------------------------------------------|
d----------------------------------------------|

verse
g1
e--------------------------------------|
b--------------------------------------|
g-4-4-4-------3-3-3--4-4-4-------3-3-3-|
d-4-4-4-0-5-0-3-3-3--4-4-4-0-5-0-3-3-3-|
a-2-2-2-0-5-0-1-1-1--2-2-2-0-5-0-1-1-1-|
d-------0-5-0--------------0-5-0-------|
xxxxxxxxxxxxxxxxxxxxxxxxxxxxxxxxxxxxxx

g1
e---xxx---xxx-|
b---xxx---xxx-|
g-2-xxx-3-xxx-|
d-2-xxx-3-xxx-|
a-0-xxx-1-xxx-|
d---xxx---xxx-|

g2
e----------------|
b----------------|
g-7-7-6-7-6------|
d-x-x-x-x-x------|
a-5-5-4-5-4\-----|
d----------------|

prechorus
g1

e---------------------------------------------xxx---xxx-|
b---------------------------------------------xxx---xxx-|
g-444---4-444---4---333---3-333---3-4-------2-xxx-3-xxx-|
d-444-0-4-444-0-4-0-333-0-3-333-0-3-4-------2-xxx-3-xxx-|
a-222-0-2-222-0-2-0-111-0-1-111-0-1-2-cont--0-xxx-1-xxx-|
d-----0-------0---0-----0-------0-------------xxx---xxx-|

g2
e---------------------|
b---------------------|
g-4/-77-6-7-6--3-4\---|
d-x--xx-x-x-x--x-x----|
a-2/-55-4-5-4--1-2\---|
d---------------------|


chorus
g1

e--------------------------------------------------|
b--------------------------------------------------|
g-4444-44444-55555-4444---4444-4444-5-5-5-0-2-4444-|
d-4444-33333-55555-4444---4444-3333-5-5-5-0-2-4444-|
a-2222-11111-55555-4444---2222-1111-5-5-5-0-2-4444-|
d--------------------------------------------------|
                                          x

short verse then

g1
e-0-
b-0-
g-0-
d-5-
a-5-
d-5-
same time
g2
e----
b----
g-5#-
d----
a----
d----

part before bridge (echoy bit)
e----------------------|
b----------------------|
g-4444-3333--7777-6666-|
d----------------------|
a----------------------|
d----------------------|

bridge
e----------------------------------------------------xxx---xxx----|
b----------------------------------------------------xxx---xxx----|
g-------3-3---------3------3------------777--------2-xxx-3-xxx-4--|
d-1-4-0-3-3---1-4-0-3-0000-3-0----1-4-1-xxx--1-4-1-2-xxx-3-xxx-4--|
a-1-4-0-2-2---1-4-0-2-0000-2-0----1-4-1-555--1-4-1-0-xxx-1-xxx-2--|
d-1-4-0-------1-4-0---0000---0----1-4-1------1-4-1---xxx---xxx----|

bridge2 (whatever the hell this part is tabbed for guitar then end harmonic and chord)
g1
e--------------------------------------------------|
b-12p0-12p0-11p0-11p0-8p0-8p0-8p10p8-7p0-7p0-------|
g--------------------------------------------3#-5~-|
d-----------------------------------------------4~-|
a-----------------------------------------------3~-|
d-----------------------------------------------4~-|
xxxxxxxxxxxxxxxxxxxxxxxxxxxxxxxxxxxxxxxxxxx

end lead solo bit
e----------------------------------------------------|
b-\10b~----------------------------------------------|
g------11-9~~9b-10p9-10p9------9-10p9-10p9--------9*-|
d-------------------------12-9------------12-9-12----|
a----------------------------------------------------|
d----------------------------------------------------|

e------------------------------------------|
b-10b~-------------------------------------|
g------9-9b--10p9-10p9---------10--11--12--|
d----------------------12-9-12-12b-13b-14b-|
a------------------------------------------|
d------------------------------------------|
Tap to rate this tab
# A B C D E F G H I J K L M N O P Q R S T U V W X Y Z