Song name
# A B C D E F G H I J K L M N O P Q R S T U V W X Y Z

Misc Unsigned Bands - Lisse Wets - Let You Go tab

Intro:

|--0--2--4------0-----|
|-------------4-------|
|---------------------|
|---------------------|
|---------------------|
|---------------------|

|---2-----------------|----2--------|
|-----------3---------|-------------|
|---------------------|-------------|
|-----------------0---|---------2---|
|---------------------|-------------|
|---------------------|-------------|
Thought we were, the same..

|--------3--------|-2---------------|----------------------------|
|---0--------3----|------3----------|----------------------------|
|-----------------|-----------------|-------------2----4----2----|
|-----------------|-------------2---|----2--2--------------------|
|-----------------|-----------------|----------------------------|
|-----------------|-----------------|----------------------------|
But I guess, I was wrong, about you and me..

|-----------|-------|--------|---------|
|---2-------|-------|--------|---------|
|-------3---|-------|---2----|----0----|
|-----------|--2----|--------|---------|
|-----------|-------|--------|---------|
|-----------|-------|--------|---------|
Need to let you,  go..

|---3---------2---|------------|-----------|---------------|
|--------3--------|-----3------|-----------|---------------|
|-----------------|------2-----|-----------|---2-4----2----|
|-----------------|------------|---2--2----|---------------|
|-----------------|------------|-----------|---------------|
|-----------------|------------|-----------|---------------|
You made me, insane, but not, any more..

|------------|-------|-------|------|
|---2--------|-------|-------|------|
|--------3---|-------|---2---|---0--|
|------------|--2----|-------|------|
|------------|-------|-------|------|
|------------|-------|-------|------|
I have, let, you, go..
Tap to rate this tab
# A B C D E F G H I J K L M N O P Q R S T U V W X Y Z