Song name
# A B C D E F G H I J K L M N O P Q R S T U V W X Y Z

Misc Unsigned Bands - The Dizzy Head Project - No Empire tab

                         No Empire
                 Written By Rick "Dizzy" Solis

                         Performed by
                    The Dizzy Head Project

Tuning: Drop C

BPM: 120

Idea Date: May or June 2009

Finished Tabbed Idea: December 13 2009--(12:44 a.m.)

Quick note: The 333xxx D#/Eb chord can be struck once and ring into the next,
instead of two times...Have yet to see which is best.


                    {Hammer on's}
|-------------------------------------|----------------------|
|-------------------------------------|----------------------|
|-------------------------------------|----------------------|
|--5--5-5-5---5-5---7-8-7-8-7-8-7-8---|--3--3---1-1-1--0-0-0-|
|--5--5-5-5---5-5---7-8-7-8-7-8-7-8---|--3--3---1-1-1--0-0-0-|
|--5--5-5-5---5-5---7-8-7-8-7-8-7-8---|--3--3---1-1-1--0-0-0-|
|
|
|
|
|          {Hammer on's}
|----------------------------|----------------------|
|----------------------------|----------------------|
|----------------------------|----------------------|
|--5---5---7-8-7-8-7-8-7-8---|--3--3---1-1-1--0-0-0-|
|--5---5---7-8-7-8-7-8-7-8---|--3--3---1-1-1--0-0-0-|
|--5---5---7-8-7-8-7-8-7-8---|--3--3---1-1-1--0-0-0-|
|
|
|
|
|          {Hammer on's}
|----------------------------|----------------------|
|----------------------------|----------------------|
|----------------------------|----------------------|
|--5---5---7-8-7-8-7-8-7-8---|--3--3---1-1-1--0-0-0-|
|--5---5---7-8-7-8-7-8-7-8---|--3--3---1-1-1--0-0-0-|
|--5---5---7-8-7-8-7-8-7-8---|--3--3---1-1-1--0-0-0-|
|
|
|
|
|          {Hammer on's}
|----------------------------|----------------------|
|----------------------------|----------------------|
|----------------------------|----------------------|
|--5---5---7-8-7-8-7-8-7-8---|--3--3---1-1-1--0-0-0-|
|--5---5---7-8-7-8-7-8-7-8---|--3--3---1-1-1--0-0-0-|
|--5---5---7-8-7-8-7-8-7-8---|--3--3---1-1-1--0-0-0-|




Chug riff on second time....Still Hammering it out
|------------|----------------|------------------|Play 4X
|------------|----------------|------------------|
|------------|----------------|------------------|
|------------|----------------|------------------|
|-555555555--|-777---8888-----|10101010----888888|
|-555555555--|-777---8888-----|10101010----888888|
|
|
|
|--------------|------------|---------------------|
|--------------|------------|---------------------|
|--------------|------------|---------------------|
|--------------|------------|---------------------|
|-101010101010-|-888888-----|--777777----555555555|
|-101010101010-|-888888-----|--777777----555555555|




                    {Hammer on's}
|-------------------------------------|----------------------|
|-------------------------------------|----------------------|
|-------------------------------------|----------------------|
|--5--5-5-5---5-5---7-8-7-8-7-8-7-8---|--3--3---1-1-1--0-0-0-|
|--5--5-5-5---5-5---7-8-7-8-7-8-7-8---|--3--3---1-1-1--0-0-0-|
|--5--5-5-5---5-5---7-8-7-8-7-8-7-8---|--3--3---1-1-1--0-0-0-|
|
|
|          {Hammer on's}
|----------------------------|----------------------|
|----------------------------|----------------------|
|----------------------------|----------------------|
|--5---5---7-8-7-8-7-8-7-8---|--3--3---1-1-1--0-0-0-|
|--5---5---7-8-7-8-7-8-7-8---|--3--3---1-1-1--0-0-0-|
|--5---5---7-8-7-8-7-8-7-8---|--3--3---1-1-1--0-0-0-|
|
|
|          {Hammer on's}
|----------------------------|----------------------|
|----------------------------|----------------------|
|----------------------------|----------------------|
|--5---5---7-8-7-8-7-8-7-8---|--3--3---1-1-1--0-0-0-|
|--5---5---7-8-7-8-7-8-7-8---|--3--3---1-1-1--0-0-0-|
|--5---5---7-8-7-8-7-8-7-8---|--3--3---1-1-1--0-0-0-|
|
|
|          {Hammer on's}
|----------------------------|----------------------|
|----------------------------|----------------------|
|----------------------------|----------------------|
|--5---5---7-8-7-8-7-8-7-8---|--3--3---1-1-1--0-0-0-|
|--5---5---7-8-7-8-7-8-7-8---|--3--3---1-1-1--0-0-0-|
|--5---5---7-8-7-8-7-8-7-8---|--3--3---1-1-1--0-0-0-|





|------------|------------|--------------|Play 4X
|------------|------------|--------------|
|------------|------------|--------------|
|------------|------------|--------------|
|-5555555555-|-5555555555-|--8888----1111|
|-5555555555-|-5555555555-|--8888----1111|
|
|
|
|------------|------------|--------------|
|------------|------------|--------------|
|------------|------------|--------------|
|------------|------------|--------------|
|-5555555555-|-5555555555-|--8888----1111|
|-5555555555-|-5555555555-|--8888----1111|



                  {Pausing Hammer on's}
|-------------------------------------|----------------------|
|-------------------------------------|----------------------|
|-------------------------------------|----------------------|
|--5--5-5-5---5-5---7-8-7-8-7-8-7-8---|--3--3---1-1-1--0-0-0-|
|--5--5-5-5---5-5---7-8-7-8-7-8-7-8---|--3--3---1-1-1--0-0-0-|
|--5--5-5-5---5-5---7-8-7-8-7-8-7-8---|--3--3---1-1-1--0-0-0-|
|
|
|          {Pausing Hammer on's}
|----------------------------|----------------------|
|----------------------------|----------------------|
|----------------------------|----------------------|
|--5---5---7-8-7-8-7-8-7-8---|--3--3---1-1-1--0-0-0-|
|--5---5---7-8-7-8-7-8-7-8---|--3--3---1-1-1--0-0-0-|
|--5---5---7-8-7-8-7-8-7-8---|--3--3---1-1-1--0-0-0-|
|
|
|          {Pausing Hammer on's}
|----------------------------|----------------------|
|----------------------------|----------------------|
|----------------------------|----------------------|
|--5---5---7-8-7-8-7-8-7-8---|--3--3---1-1-1--0-0-0-|
|--5---5---7-8-7-8-7-8-7-8---|--3--3---1-1-1--0-0-0-|
|--5---5---7-8-7-8-7-8-7-8---|--3--3---1-1-1--0-0-0-|
|
|
|          {Pausing Hammer on's}
|----------------------------|----------------------|
|----------------------------|----------------------|
|----------------------------|----------------------|
|--5---5---7-8-7-8-7-8-7-8---|--3--3---1-1-1--0-0-0-|
|--5---5---7-8-7-8-7-8-7-8---|--3--3---1-1-1--0-0-0-|
|--5---5---7-8-7-8-7-8-7-8---|--3--3---1-1-1--0-0-0-|
|
|
|          {Pausing Hammer on's}
|----------------------------|----------------------|
|----------------------------|----------------------|
|----------------------------|----------------------|
|--5---5---7-8-7-8-7-8-7-8---|--3--3---1-1-1--0-0-0-|
|--5---5---7-8-7-8-7-8-7-8---|--3--3---1-1-1--0-0-0-|
|--5---5---7-8-7-8-7-8-7-8---|--3--3---1-1-1--0-0-0-|
|
|
|          {Pausing Hammer on's}
|----------------------------|----------------------|
|----------------------------|----------------------|
|----------------------------|----------------------|
|--5---5---7-8-7-8-7-8-7-8---|--3--3---1-1-1--0-0-0-|
|--5---5---7-8-7-8-7-8-7-8---|--3--3---1-1-1--0-0-0-|
|--5---5---7-8-7-8-7-8-7-8---|--3--3---1-1-1--0-0-0-|





|------------|------------|--------------|Play 2X
|------------|------------|--------------|
|------------|------------|--------------|
|------------|------------|--------------|
|-5555555555-|-5555555555-|--8888----1111|
|-5555555555-|-5555555555-|--8888----1111|
|
|
|
|------------|------------|--------------|
|------------|------------|--------------|
|------------|------------|--------------|
|------------|------------|--------------|
|-5555555555-|-5555555555-|--8888----1111|
|-5555555555-|-5555555555-|--8888----1111|





|----------------------------------|play 7X
|----------------------------------|
|----------------------------------|
|----------------------------------|
|------3-----5-----6-----5-----3-5-|
|--0-0---0-0---0-0---0-0---0-0-----|
|
|
|----------------------------------------|Let Ring
|----------------------------------------|
|----------------------------------------|
|--------------------------------------5-|
|------3-----5-----6-----5-------------5-|
|--0-0---0-0---0-0---0-0---0-0---------5-|
Tap to rate this tab
 
# A B C D E F G H I J K L M N O P Q R S T U V W X Y Z