Song name
# A B C D E F G H I J K L M N O P Q R S T U V W X Y Z

Misc Unsigned Bands - Darkin - The Dizzy Head Project tab

Darkin Guitar

Written By Rick "Dizzy" Solis

Performed by
The Dizzy Head Project

Tuning: Drop C

BPM: Around 131.50....132

Idea Date: unknow
Original Drum Idea by Ed "Head" Haspadura

Finished Tabbed Idea: December 14, 2009--(2:55 a.m.)



^ Play This Riff 4X^
|------------------|----------------------------------------|----------|
|------------------|----------------------------------------|----------|
|------------------|----------------------------------------|----------|
|--0---3--6--1---0-|--0-0-0-0-0---0-0-0-0-1-0-1---0-0-0-0-0-|--3-6-1-0-|
|--0---3--6--1---0-|--0-0-0-0-0---0-0-0-0-1-0-1---0-0-0-0-0-|--3-6-1-0-|
|--0---3--6--1---0-|--0-0-0-0-0---0-0-0-0-1-0-1---0-0-0-0-0-|--3-6-1-0-|
^                  ^

|----------------------------------------|----------|
|----------------------------------------|----------|
|----------------------------------------|----------|
|--0-0-0-0-0---0-0-0-0-1-0-1---0-0-0-0-0-|--3-6-1-0-|
|--0-0-0-0-0---0-0-0-0-1-0-1---0-0-0-0-0-|--3-6-1-0-|
|--0-0-0-0-0---0-0-0-0-1-0-1---0-0-0-0-0-|--3-6-1-0-|
|
|
|-------------------------|----------------------|Play 2X
|-------------------------|----------------------|Second time Play
|-------------------------|----------------------|Riff 1a
|--00000000--00--00000001-|-00000000--0--3-6-1-0-|
|--00000000--00--00000001-|-00000000--0--3-6-1-0-|
|--00000000--00--00000001-|-00000000--0--3-6-1-0-|
|
|Riff 1a
|----------------------|------------------|
|----------------------|------------------|
|----------------------|------------------|
|-00000000--0--3-6-1-5-|-5-6-8-6-5--555--0|
|-00000000--0--3-6-1-5-|-5-6-8-6-5--555--0|
|-00000000--0--3-6-1-5-|-5-6-8-6-5--555--0|
|
|-------------|play 3X
|-------------|4th X Play Riff 1B
|-------------|
|---3--6--1--0|
|---3--6--1--0|
|---3--6--1--0|
|Rif 1B
|-----------|
|-----------|
|-----------|
|---3--6--1-|
|---3--6--1-|
|---3--6--1-|





|-------------------------|----------------------|Play 4X
|-------------------------|----------------------|
|-------------------------|----------------------|
|--00000000--00--00000001-|-00000000--0--3-6-1--0|
|--00000000--00--00000001-|-00000000--0--3-6-1--0|
|--00000000--00--00000001-|-00000000--0--3-6-1--0|


|
|-------------|play 4X
|-------------|4th X Play Riff 1B
|-------------|
|---3--6--1--0|
|---3--6--1--0|
|---3--6--1--0|
|Rif 1B
|-----------|
|-----------|
|-----------|
|---3--6--1-|
|---3--6--1-|
|---3--6--1-|

|-------------------------|----------------------|Play 5X
|-------------------------|----------------------|
|-------------------------|----------------------|
|--00000000--00--00000001-|-00000000--0--3-6-1--0|
|--00000000--00--00000001-|-00000000--0--3-6-1--0|
|--00000000--00--00000001-|-00000000--0--3-6-1--0|





|----------------------|---------------------|Play 4X
|----------------------|---------------------|
|----------------------|---------------------|
|--33333333---55555555-|-33333333--77777777--|
|--33333333---55555555-|-33333333--77777777--|
|--33333333---55555555-|-33333333--77777777--|




|-------------------------|----------------------|Play 2X
|-------------------------|----------------------|
|-------------------------|----------------------|
|--00000000--00--00000001-|-00000000--0--3-6-1--0|
|--00000000--00--00000001-|-00000000--0--3-6-1--0|
|--00000000--00--00000001-|-00000000--0--3-6-1--0|
|
|-------------|play 4X
|-------------|4th X Play Riff 1C
|-------------|
|---3--6--1--0|
|---3--6--1--0|
|---3--6--1--0|
|
|-----------------------------------------|------------|
|-----------------------------------------|------------|
|-----------------------------------------|------------|
|--0-0-0-0-0-1--0-0-0-0-0-1---0-0-0-0-0-1-|-0-0-0-0--6-|
|--0-0-0-0-0-1--0-0-0-0-0-1---0-0-0-0-0-1-|-0-0-0-0--6-|
|--0-0-0-0-0-1--0-0-0-0-0-1---0-0-0-0-0-1-|-0-0-0-0--6-|
|
|---------------------------|----------------------------------|
|---------------------------|----------------------------------|
|---------------------------|----------------------------------|
|--0-0-0-0-0-1--0-0-0-0-0-1-|--0-0-0-0-0-1--6-5-3-33-6-6-8-6-66|
|--0-0-0-0-0-1--0-0-0-0-0-1-|--0-0-0-0-0-1--6-5-3-33-6-6-8-6-66|
|--0-0-0-0-0-1--0-0-0-0-0-1-|--0-0-0-0-0-1--6-5-3-33-6-6-8-6-66|




|-----------------------|Play 7 times
|-----------------------|On 7th X Play
|-----------------------|riff 1D
|-0000000--0--0000000-1-|
|-0000000--0--0000000-1-|
|-0000000--0--0000000-1-|
|
|Riff 1D
|--------|Play 20X
|--------|
|--------|
|-000001-|
|-000001-|
|-000001-|
|
|-----|
|-----|
|-----|
|--0--|
|--0--|
|--0--|
Tap to rate this tab
# A B C D E F G H I J K L M N O P Q R S T U V W X Y Z