Song name
# A B C D E F G H I J K L M N O P Q R S T U V W X Y Z

Misc Unsigned Bands - Mystic Elders - Tales Of The Rotten Sirens chords

                           TALES OF THE ROTTON SIRENS
                          As recorded by Mystic Elders

Words and Music by Jeremy Bender
Transcribed by Ben Goodrich

          A5                   C5                   F5               F5(type 2)
      5 7 x x x x         8 10 x x x x          1 3 3 x x x          1 3 x x x x

          G5               G5(type 2)               B5                   D5
      3 5 x x x x        x 10 12 12 x x         7 9 x x x x         10 12 x x x x

      F5(type 3)           A5(type 2)
     x 8 10 10 x x         5 7 7 x x x

Gtr I (E A D G B E) - 'Rhythm/Lead'
Gtr II (E A D G B E) - 'Lead'
Gtr III (E A D G B E) - 'Lead'
Gtr IV (E A D G B E) - 'Rhythm'

 Intro          Verses
  Q=160
 4/4
  Gtr I
  Wx2            E E E E E E E E   E E E E  Q   Q
|------------||------------------|-----------------|
|------------||o-----------------|-----------------|
|------------||------------------|-----------------|
|------------||------------------|-----------------|
|------------||o-7-7-7-7-7-7-7-7-|-7-7-7-7-10--10--|
|------------||--5-5-5-5-5-5-5-5-|-5-5-5-5--8---8--|


  E E E E E E E E   E E E E Q  Q
|-----------------|-----------------|
|-----------------|-----------------|
|-----------------|-----------------|
|-----------------|---------3--3----|
|-7-7-7-7-7-7-7-7-|-7-7-7-7-3--3----|
|-5-5-5-5-5-5-5-5-|-5-5-5-5-1--1----|


  E E E E E E E E   E E E E  Q   Q    Q.    Q.   Q    +H     Q.    E
|-----------------|-----------------|---------------|----------------|
|-----------------|-----------------|---------------|----------------|
|-----------------|-----------------|---------------|----------------|
|-----------------|-----------------|---------------|----------------|
|-7-7-7-7-7-7-7-7-|-7-7-7-7-10--10--|-3----10----5--|-(5)----3----10-|
|-5-5-5-5-5-5-5-5-|-5-5-5-5--8---8--|-1-----8----3--|-(3)----1-----8-|


   +Q   Q  +H       E E E E E E E E   E E E E  Q   Q    E E E E E E E E
|-----------------|-----------------|-----------------|-----------------|
|-----------------|-----------------|-----------------|-----------------|
|-----------------|-----------------|-----------------|-----------------|
|-----------------|-----------------|-----------------|-----------------|
|-(10)--5--(5)----|-7-7-7-7-7-7-7-7-|-7-7-7-7-10--10--|-7-7-7-7-7-7-7-7-|
|--(8)--3--(3)----|-5-5-5-5-5-5-5-5-|-5-5-5-5--8---8--|-5-5-5-5-5-5-5-5-|


  E E E E Q  Q    E E E E E E E E   E E E E  Q   Q
|---------------|-----------------|-----------------|
|---------------|-----------------|-----------------|
|---------------|-----------------|-----------------|
|---------3--3--|-----------------|-----------------|
|-7-7-7-7-3--3--|-7-7-7-7-7-7-7-7-|-7-7-7-7-10--10--|
|-5-5-5-5-1--1--|-5-5-5-5-5-5-5-5-|-5-5-5-5--8---8--|


  Q.    Q.   Q    +H     Q.    E    +Q    Q   +H
|---------------|----------------|-------------------|
|---------------|----------------|-------------------|
|---------------|----------------|-------12--(12)----|
|---------------|----------------|-------12--(12)----|
|-3----10----5--|-(5)----3----10-|-(10)--10--(10)----|
|-1-----8----3--|-(3)----1-----8-|--(8)--------------|


  Q.    Q.   Q    +H     Q.    E    +Q    Q   +H
|---------------|----------------|-------------------|
|---------------|----------------|-------------------|
|---------------|----------------|-------12--(12)----|
|---------------|----------------|-------12--(12)----|
|-3----10----5--|-(5)----3----10-|-(10)--10--(10)----|
|-1-----8----3--|-(3)----1-----8-|--(8)--------------|


 Chorus
  W          W           W           W
|----------|----------|-----------|-----------|
|----------|----------|-----------|-----------|
|----------|----------|-----------|-----------|
|----------|----------|-----------|-----------|
|-7--------|-9--------|-10--------|-12--------|
|-5--------|-7--------|--8--------|-10--------|


  E E  E E E E  E E   E E  E E E E  E E
|-------------------|--------------------|
|-------------------|--------------------|
|-----10-------10---|-----10-------10----|
|-----10-------10---|-----10-------10----|
|-8-8--8-8-8-8--8-8-|-8-8--8-8-8-8--8-8--|
|-------------------|--------------------|


   E  E   E   E  E  E   E   E    E  E   E   E  E  E   Q
|-----------------------------|---------------------------|
|-----------------------------|---------------------------|
|-------<12>----------<12>----|-------<12>----------<12>--|
|-------<12>----------<12>----|-------<12>----------<12>--|
|-10-10--10--10-10-10--10--10-|-10-10--10--10-10-10--10---|
|-----------------------------|---------------------------|


  W          W           W           W
|----------|----------|-----------|-------|
|----------|----------|-----------|-------|
|----------|----------|-----------|-------|
|----------|----------|-----------|-------|
|-7--------|-9--------|-10--------|-12----|
|-5--------|-7--------|--8--------|-10----|


  E E  E E E E  E E   E E  E E E E  E E
|-------------------|-------------------|
|-------------------|-------------------|
|-----10-------10---|-----10-------10---|
|-----10-------10---|-----10-------10---|
|-8-8--8-8-8-8--8-8-|-8-8--8-8-8-8--8-8-|
|-------------------|-------------------|


   E  E  E  E  E  E  E  E    E  E  E  E  E  E  Q
|-------------------------|------------------------||
|-------------------------|-----------------------o||
|-------12----------12----|-------12----------12---||
|-------12----------12----|-------12----------12---||
|-10-10-10-10-10-10-10-10-|-10-10-10-10-10-10-10--o||
|-------------------------|------------------------||


                                             Interlude
                                    Q=80                          Q=160
  E E E E E E E E   W          +Q   H.        Wx17          Q  Q  Q  Q
|-----------------|----------|--------------|-------------|-------------|
|-----------------|----------|--------------|-------------|-------------|
|-----------------|----------|--------------|-------------|-------------|
|-7-7-7-7-7-7-7-7-|-7--------|-(7)----------|-------------|-------------|
|-7-7-7-7-7-7-7-7-|-7--------|-(7)----------|-------------|-------------|
|-5-5-5-5-5-5-5-5-|-5--------|-(5)----------|-------------|-------------|


 Solo Rhythm
  E E E E E E E E   E E E E  Q   Q    E E E E E E E E   E E E E Q  Q
|-----------------|-----------------|-----------------|---------------|
|-----------------|-----------------|-----------------|---------------|
|-----------------|-----------------|-----------------|---------------|
|-----------------|-----------------|-----------------|---------3--3--|
|-7-7-7-7-7-7-7-7-|-7-7-7-7-10--10--|-7-7-7-7-7-7-7-7-|-7-7-7-7-3--3--|
|-5-5-5-5-5-5-5-5-|-5-5-5-5--8---8--|-5-5-5-5-5-5-5-5-|-5-5-5-5-1--1--|


  E E E E E E E E   E E E E  Q   Q    Q.    Q.   Q    +H     Q.    E
|-----------------|-----------------|---------------|----------------|
|-----------------|-----------------|---------------|----------------|
|-----------------|-----------------|---------------|----------------|
|-----------------|-----------------|---------------|----------------|
|-7-7-7-7-7-7-7-7-|-7-7-7-7-10--10--|-3----10----5--|-(5)----3----10-|
|-5-5-5-5-5-5-5-5-|-5-5-5-5--8---8--|-1-----8----3--|-(3)----1-----8-|


                   Solo Part 1
                    A5
                    Gtr IV
                     E    E     E    E     E    E     E    E
                     |    |     |    |     |    |     |    |
                     /    /     /    /     /    /     /    /

                    Gtr I
                     |---3---|  |---3---|  |---3---|  |---3---|
   +Q   Q  +H        E  E    E  E  E    E  E  E    E  E  E    E
|-----------------|-15------12-13-15---17-15-13---12----12---13-|
|-----------------|----13----------------------------15---------|
|-----------------|---------------------------------------------|
|-----------------|---------------------------------------------|
|-(10)--5--(5)----|---------------------------------------------|
|--(8)--3--(3)----|---------------------------------------------|
|
|                   Gtr II
|                    |---3---|  |---3---|  |---3---|  |---3---|
|   W                E  E    E  E  E    E  E  E    E  E  E    E
|-----------------|-12---------10-12---13-12-10---------10---13-|
|-----------------|----10---13--------------------13-12---------|
|-----------------|---------------------------------------------|
|-----------------|---------------------------------------------|
|-----------------|---------------------------------------------|
|-----------------|---------------------------------------------|
|
|                   Gtr III
|                    |---3---|  |---3---|  |---3---|  |---3---|
|   W                E  E    E  E  E    E  E  E    E  E  E    E
|-----------------|--8----------6--8---10--8--6---------------6-|
|-----------------|-----6---10--------------------10--8-10------|
|-----------------|---------------------------------------------|
|-----------------|---------------------------------------------|
|-----------------|---------------------------------------------|
|-----------------|---------------------------------------------|


                        C5                  A5
   E    E     E    E     Q        Q          E    E     E    E     E    E     E    E
   |    |     |    |     |        |          |    |     |    |     |    |     |    |
   /    /     /    /     /        /          /    /     /    /     /    /     /    /

   |---3---|  |---3---|  |--3--|  |--3--|    |---3---|  |---3---|  |---3---|  |---3---|
   E  E    E  E  E    E  E  E  E  E  E  E    E  E    E  E  E    E  E  E    E  E  E    E
|-15------12-13-15---17-15-13-12----12-13-|-15------12-13-15---17-15-13---12----12---13---|
|----13--------------------------15-------|----13----------------------------15-----------|
|-----------------------------------------|-----------------------------------------------|
|-----------------------------------------|-----------------------------------------------|
|-----------------------------------------|-----------------------------------------------|
|-----------------------------------------|-----------------------------------------------|
|
|  |---3---|  |---3---|  |--3--|  |--3--|    |---3---|  |---3---|  |---3---|  |---3---|
|  E  E    E  E  E    E  E  E  E  E  E  E    E  E    E  E  E    E  E  E    E  E  E    E
|-12---------10-12---13-12-10-------10-13-|-12---------10-12---13-12-10---------10---13---|
|----10---13------------------13-12-------|----10---13--------------------13-12-----------|
|-----------------------------------------|-----------------------------------------------|
|-----------------------------------------|-----------------------------------------------|
|-----------------------------------------|-----------------------------------------------|
|-----------------------------------------|-----------------------------------------------|
|
|  |---3---|  |---3---|  |--3--|  |--3--|    |---3---|  |---3---|  |---3---|  |---3---|
|  E  E    E  E  E    E  E  E  E  E  E  E    E  E    E  E  E    E  E  E    E  E  E    E
|--8----------6--8---10--8--6-----------6-|--8----------6--8---10--8--6---------------6---|
|-----6---10------------------10--8-10----|-----6---10--------------------10--8-10--------|
|-----------------------------------------|-----------------------------------------------|
|-----------------------------------------|-----------------------------------------------|
|-----------------------------------------|-----------------------------------------------|
|-----------------------------------------|-----------------------------------------------|


  A5                    F5       A5
   E    E     E    E     Q  Q     E    E     E    E     E    E     E    E
   |    |     |    |     |  |     |    |     |    |     |    |     |    |
   /    /     /    /     /  /     /    /     /    /     /    /     /    /

   |---3---|  |---3---|           |---3---|  |---3---|  |---3---|  |---3---|
   E  E    E  E  E    E  H        E  E    E  E  E    E  E  E    E  E  E    E
|-15------12-13-15S==13-12-----|-15------12-13-15---17-15-13---12----12---13-|
|----13------------------------|----13----------------------------15---------|
|------------------------------|---------------------------------------------|
|------------------------------|---------------------------------------------|
|------------------------------|---------------------------------------------|
|------------------------------|---------------------------------------------|
|
|  |---3---|  |---3---|           |---3---|  |---3---|  |---3---|  |---3---|
|  E  E    E  E  E    E  H        E  E    E  E  E    E  E  E    E  E  E    E
|-12---------10-12S==10--------|-12---------10-12---13-12-10---------10---13-|
|----10---13------------13-----|----10---13--------------------13-12---------|
|------------------------------|---------------------------------------------|
|------------------------------|---------------------------------------------|
|------------------------------|---------------------------------------------|
|------------------------------|---------------------------------------------|
|
|  |---3---|  |---3---|           |---3---|  |---3---|  |---3---|  |---3---|
|  E  E    E  E  E    E  H        E  E    E  E  E    E  E  E    E  E  E    E
|--8--6-------6----------------|--8----------6--8---10--8--6---------------6-|
|---------10----10----6-10-----|-----6---10--------------------10--8-10------|
|------------------------------|---------------------------------------------|
|------------------------------|---------------------------------------------|
|------------------------------|---------------------------------------------|
|------------------------------|---------------------------------------------|


                        C5
   E    E     E    E     Q        Q
   |    |     |    |     |        |
   /    /     /    /     /        /

   |---3---|  |---3---|  |--3--|  |--3--|
   E  E    E  E  E    E  E  E  E  E  E  E
|-15------12-13-15---17-15-13-12----12-13-|
|----13--------------------------15-------|
|-----------------------------------------|
|-----------------------------------------|
|-----------------------------------------|
|-----------------------------------------|
|
|  |---3---|  |---3---|  |--3--|  |--3--|
|  E  E    E  E  E    E  E  E  E  E  E  E
|-12---------10-12---13-12-10-------10-13-|
|----10---13------------------13-12-------|
|-----------------------------------------|
|-----------------------------------------|
|-----------------------------------------|
|-----------------------------------------|
|
|  |---3---|  |---3---|  |--3--|  |--3--|
|  E  E    E  E  E    E  E  E  E  E  E  E
|--8----------6--8---10--8--6-----------6-|
|-----6---10------------------10--8-10----|
|-----------------------------------------|
|-----------------------------------------|
|-----------------------------------------|
|-----------------------------------------|


  F5(type 2)      C5             G5
   Q.             Q.              Q
   |              |               |
   /              /               /

   |--3---|  |---3----|  |--3--|  |--3--|
   E   E  E  E  E     E  E  E  E  E  E  E
|-15-----12-13-15----17-15-13-12-13-15-13-|
|-----13----------------------------------|
|-----------------------------------------|
|-----------------------------------------|
|-----------------------------------------|
|-----------------------------------------|
|
|  |--3---|  |---3----|  |--3--|  |--3--|
|  E   E  E  E  E     E  E  E  E  E  E  E
|-12--------10-12----13-12-10-------10-13-|
|-----10-13-------------------13-12-------|
|-----------------------------------------|
|-----------------------------------------|
|-----------------------------------------|
|-----------------------------------------|
|
|  |--3---|  |---3----|  |--3--|  |--3--|
|  E   E  E  E  E     E  E  E  E  E  E  E
|--8---------6--8----10--8--6-----------6-|
|------6-10-------------------10--8-10----|
|-----------------------------------------|
|-----------------------------------------|
|-----------------------------------------|
|-----------------------------------------|


                    F5(typC52)       G5(type 2)
  +H                 Q.   E      +Q  Q  +H
   |                 |    |       |  |   |
   /                 /    /       /  /   /

   W                           a  W
|---------------------------|-11-12-----------|
|-15------------------------|-----------------|
|---------------------------|-----------------|
|---------------------------|-----------------|
|---------------------------|-----------------|
|---------------------------|-----------------|
|
|  |--3--|  |--3--|
|  E  E  E  E  E  E  H         a  W
|-12-------10-12-10---------|-----------------|
|----10-13----------12------|-12-13-----------|
|---------------------------|-----------------|
|---------------------------|-----------------|
|---------------------------|-----------------|
|---------------------------|-----------------|
|
|  W                           a  W
|---------------------------|-----------------|
|--6------------------------|--6--8-----------|
|---------------------------|-----------------|
|---------------------------|-----------------|
|---------------------------|-----------------|
|---------------------------|-----------------|


  F5(typeC5)  G5         F5(tyC5 2)   G5(type 2)
    Q.   Q.   Q    +H    Q.   E   +Q  Q  +H
    |    |    |     |    |    |    |  |   |
    /    /    /     /    /    /    /  /   /

    >
   +W               W              W
|-(12)-----------|--------------|--------------|
|----------------|--------------|--------------|
|----------------|--------------|--------------|
|----------------|--------------|--------------|
|----------------|--------------|--------------|
|----------------|--------------|--------------|
|
|   >
|  +W               W              W
|----------------|--------------|--------------|
|-(13)-----------|--------------|--------------|
|----------------|--------------|--------------|
|----------------|--------------|--------------|
|----------------|--------------|--------------|
|----------------|--------------|--------------|
|
|   >
|  +W               W              W
|----------------|--------------|--------------|
|--(8)-----------|--------------|--------------|
|----------------|--------------|--------------|
|----------------|--------------|--------------|
|----------------|--------------|--------------|
|----------------|--------------|--------------|


 Solo Part 2
  A5                                    B5
   W                                     W
   |                                     |
   /                                     /

   |--3--|  |--3--|  |--3--|  |--3--|    |--3--|  |--3--|  |--3--|  |--3--|
   E  E  E  E  E  E  E  E  E  E  E  E    E  E  E  E  E  E  E  E  E  E  E  E
|-------10-12h13p12-------12-13h15p13-|-------10-12h13p12-------12-13h15p13-|
|-10-13-------------13-15-------------|-10-13-------------13-15-------------|
|-------------------------------------|-------------------------------------|
|-------------------------------------|-------------------------------------|
|-------------------------------------|-------------------------------------|
|-------------------------------------|-------------------------------------|
|Two Guitars Arranged for One
|  |--3--|  |--3--|  |--3--|  |--3--|    |--3--|  |--3--|  |--3--|  |--3--|
|  E  E  E  E  E  E  E  E  E  E  E  E    E  E  E  E  E  E  E  E  E  E  E  E
|-------------------------------------|-------------------------------------|
|-------------------------------------|-------------------------------------|
|--------7--9h10p=9--------9-10h12p10-|--------7--9h10p=9--------9-10h12p10-|
|--7-10-------------10-12-------------|--7-10-------------10-12-------------|
|--------5--7h=8p=7--------7--8h10p=8-|--------5--7h=8p=7--------7--8h10p=8-|
|--5--8--------------8-10-------------|--5--8--------------8-10-------------|
|
|  |--3--|  |--3--|  |--3--|  |--3--|    |--3--|  |--3--|  |--3--|  |--3--|
|  E  E  E  E  E  E  E  E  E  E  E  E    E  E  E  E  E  E  E  E  E  E  E  E
|-------------------------------------|-------------------------------------|
|-------------------------------------|-------------------------------------|
|-------10-12h14p12-------12-14h16p14-|-------10-12h14p12-------12-14h16p14-|
|-10-14-------------14-15-------------|-10-14-------------14-15-------------|
|-------------------------------------|-------------------------------------|
|-------------------------------------|-------------------------------------|


  C5                                    D5
   W                                     W
   |                                     |
   /                                     /

   |--3--|  |--3--|  |--3--|  |--3--|    |--3--|  |--3--|
   E  E  E  E  E  E  E  E  E  E  E  E    E  E  E  E  E  E  H
|-------10-12h13p12-------12-13h15p13-|-------10-12h13p12-10----|
|-10-13-------------13-15-------------|-10-13-------------------|
|-------------------------------------|-------------------------|
|-------------------------------------|-------------------------|
|-------------------------------------|-------------------------|
|-------------------------------------|-------------------------|
|
|  |--3--|  |--3--|  |--3--|  |--3--|    |--3--|  |--3--|
|  E  E  E  E  E  E  E  E  E  E  E  E    E  E  E  E  E  E  H
|-------------------------------------|-------------------------|
|-------------------------------------|-------------------------|
|--------7--9h10p=9--------9-10h12p10-|--------7--9h10p=9--7----|
|--7-10-------------10-12-------------|--7-10-------------------|
|--------5--7h=8p=7--------7--8h10p=8-|--------5--7h=8p=7--5----|
|--5--8--------------8-10-------------|--5--8-------------------|
|
|  |--3--|  |--3--|  |--3--|  |--3--|    |--3--|  |--3--|
|  E  E  E  E  E  E  E  E  E  E  E  E    E  E  E  E  E  E  H
|-------------------------------------|-------------------------|
|-------------------------------------|-------------------------|
|-------10-12h14p12-------12-14h16p14-|-------10-12h14p12-10----|
|-10-14-------------14-15-------------|-10-14-------------------|
|-------------------------------------|-------------------------|
|-------------------------------------|-------------------------|


  F          F5(typF 3)            F5(typF 3)              F5(typF 3)            F5(typF 3)
   E    E     E    E     E    E     E    E       E    E     E    E     E    E     E    E
   |    |     |    |     |    |     |    |       |    |     |    |     |    |     |    |
   o    /     /    o     /    /     /    o       /    /     /    o     /    /     /    o

   |---3---|  |---3---|  |---3---|  |---3---|    |---3---|  |---3---|  |---3---|  |---3---|
   E  E    E  E  E    E  E  E    E  E  E    E    E  E    E  E  E    E  E  E    E  E  E    E
|---------10-12-13---12---------12-13-15---13-|---------10-12-13---12---------12-13-15---13-|
|-10-13-----------------13-15-----------------|-10-13-----------------13-15-----------------|
|---------------------------------------------|---------------------------------------------|
|---------------------------------------------|---------------------------------------------|
|---------------------------------------------|---------------------------------------------|
|---------------------------------------------|---------------------------------------------|
|
|  |---3---|  |---3---|  |---3---|  |---3---|    |---3---|  |---3---|  |---3---|  |---3---|
|  E  E    E  E  E    E  E  E    E  E  E    E    E  E    E  E  E    E  E  E    E  E  E    E
|---------------------------------------------|---------------------------------------------|
|---------------------------------------------|---------------------------------------------|
|----------7--9h10p===9----------9-10h12p==10-|----------7--9h10p===9----------9-10h12p==10-|
|--7-10-----------------10-12-----------------|--7-10-----------------10-12-----------------|
|----------5--7h=8p===7----------7--8h10p===8-|----------5--7h=8p===7----------7--8h10p===8-|
|--5--8------------------8-10-----------------|--5--8------------------8-10-----------------|
|
|  |---3---|  |---3---|  |---3---|  |---3---|    |---3---|  |---3---|  |---3---|  |---3---|
|  E  E    E  E  E    E  E  E    E  E  E    E    E  E    E  E  E    E  E  E    E  E  E    E
|---------------------------------------------|---------------------------------------------|
|---------------------------------------------|---------------------------------------------|
|---------10-12h14p==12---------12-14h16p==14-|---------10-12h14p==12---------12-14h16p==14-|
|-10-14-----------------14-15-----------------|-10-14-----------------14-15-----------------|
|---------------------------------------------|---------------------------------------------|
|---------------------------------------------|---------------------------------------------|


  G          G5(typG 2)            G5(typG 2)              G5(typG 2)      G5(type 2)
   E    E     E    E     E    E     E    E       E    E     E    E     E E Q
   |    |     |    |     |    |     |    |       |    |     |    |     | | |
   o    /     /    o     /    /     /    o       /    /     /    o     / / /

   |---3---|  |---3---|  |---3---|  |---3---|    |---3---|  |---3---|
   E  E    E  E  E    E  E  E    E  E  E    E    E  E    E  E  E    E  H
|---------10-12-13---12---------12-13-15---13-|---------10-12-13---12-10--------|
|-10-13-----------------13-15-----------------|-10-13---------------------------|
|---------------------------------------------|---------------------------------|
|---------------------------------------------|---------------------------------|
|---------------------------------------------|---------------------------------|
|---------------------------------------------|---------------------------------|
|
|  |---3---|  |---3---|  |---3---|  |---3---|    |---3---|  |---3---|
|  E  E    E  E  E    E  E  E    E  E  E    E    E  E    E  E  E    E  H
|---------------------------------------------|---------------------------------|
|---------------------------------------------|---------------------------------|
|----------7--9h10p===9----------9-10h12p==10-|----------7--9h10p===9--7--------|
|--7-10-----------------10-12-----------------|--7-10---------------------------|
|----------5--7h=8p===7----------7--8h10p===8-|----------5--7h=8p===7--5--------|
|--5--8------------------8-10-----------------|--5--8---------------------------|
|
|  |---3---|  |---3---|  |---3---|  |---3---|    |---3---|  |---3---|
|  E  E    E  E  E    E  E  E    E  E  E    E    E  E    E  E  E    E  H
|---------------------------------------------|---------------------------------|
|---------------------------------------------|---------------------------------|
|---------10-12h14p==12---------12-14h16p==14-|---------10-12h14p==12-10--------|
|-10-14-----------------14-15-----------------|-10-14---------------------------|
|---------------------------------------------|---------------------------------|
|---------------------------------------------|---------------------------------|


 Solo Part 3 (Tapping)
  A5
   W
   |
   /

   T      T      T      T      T      T      T      T
   |-3-|  |-3-|  |-3-|  |-3-|  |-3-|  |-3-|  |-3-|  |-3-|
   S S S  S S S  S S S  S S S  S S S  S S S  S S S  S S S
|-13p5h8-13p5h8-13p5h8-13p5h8-13p5h8-13p5h8-13p5h8-13p5h8-|
|---------------------------------------------------------|
|---------------------------------------------------------|
|---------------------------------------------------------|
|---------------------------------------------------------|
|---------------------------------------------------------|


  B5
   W
   |
   /

   T      T      T      T      T      T      T      T
   |-3-|  |-3-|  |-3-|  |-3-|  |-3-|  |-3-|  |-3-|  |-3-|
   S S S  S S S  S S S  S S S  S S S  S S S  S S S  S S S
|-13p5h8-12p5h8-12p5h8-12p5h8-12p5h8-12p5h8-12p5h8-12p5h8--|
|----------------------------------------------------------|
|----------------------------------------------------------|
|----------------------------------------------------------|
|----------------------------------------------------------|
|----------------------------------------------------------|


  C5
   W
   |
   /

   T      T      T      T      T      T      T      T
   |-3-|  |-3-|  |-3-|  |-3-|  |-3-|  |-3-|  |-3-|  |-3-|
   S S S  S S S  S S S  S S S  S S S  S S S  S S S  S S S
|-12p5h8-10p5h8-10p5h8-10p5h8-10p5h8-10p5h8-10p5h8-10p5h8-|
|---------------------------------------------------------|
|---------------------------------------------------------|
|---------------------------------------------------------|
|---------------------------------------------------------|
|---------------------------------------------------------|


  D5
   W
   |
   /

   T      T      T      T      T      T      T      T
   |-3-|  |-3-|  |-3-|  |-3-|  |-3-|  |-3-|  |-3-|  |-3-|
   S S S  S S S  S S S  S S S  S S S  S S S  S S S  S S S
|-10p5h8-12p5h8-12p5h8-12p5h8-12p5h8-13p5h8-13p5h8-13p5h8--|
|----------------------------------------------------------|
|----------------------------------------------------------|
|----------------------------------------------------------|
|----------------------------------------------------------|
|----------------------------------------------------------|


  F             F5(typeF3)                  F5(typeF3)
   E      E      E      E      E      E      E      E
   |      |      |      |      |      |      |      |
   o      /      /      o      /      /      /      o

   T      T      T      T      T      T      T      T
   |-3-|  |-3-|  |-3-|  |-3-|  |-3-|  |-3-|  |-3-|  |-3-|
   S S S  S S S  S S S  S S S  S S S  S S S  S S S  S S S
|-13p5h8-15p5h8-15p5h8-15p5h8-15p5h8-15p5h8-15p5h8-15p5h8-|
|---------------------------------------------------------|
|---------------------------------------------------------|
|---------------------------------------------------------|
|---------------------------------------------------------|
|---------------------------------------------------------|


                F5(typeF3)                  F5(typeF3)
   E      E      E      E      E      E      E      E
   |      |      |      |      |      |      |      |
   /      /      /      o      /      /      /      o

   T      T      T      T      T      T      T      T
   |-3-|  |-3-|  |-3-|  |-3-|  |-3-|  |-3-|  |-3-|  |-3-|
   S S S  S S S  S S S  S S S  S S S  S S S  S S S  S S S
|-15p5h8-15p5h8-15p5h8-15p5h8-15p5h8-15p5h8-15p5h8-15p5h8--|
|----------------------------------------------------------|
|----------------------------------------------------------|
|----------------------------------------------------------|
|----------------------------------------------------------|
|----------------------------------------------------------|


  G         G5Gtype G5Gtype 2)   G5Gtype G5(type 2)
   E      E E E E E E E     E  E E E E E Q
   |      | | | | | | |     |  | | | | | |
   o      / / o / / / o     /  / / o / / /

                            >
   T
   W                       +W
|-17--------------------|-(17)--------------|
|-----------------------|-------------------|
|-----------------------|-------------------|
|-----------------------|-------------------|
|-----------------------|-------------------|
|-----------------------|-------------------|
|
|                           >
|  W                       +W
|--5--------------------|--(5)--------------|
|--8b8.5================|==(8)--------------|
|-----------------------|-------------------|
|-----------------------|-------------------|
|-----------------------|-------------------|
|-----------------------|-------------------|


 Verse
  E E E E E E E E   E E E E  Q   Q    E E E E E E E E   E E E E Q  Q
|-----------------|-----------------|-----------------|---------------|
|-----------------|-----------------|-----------------|---------------|
|-----------------|-----------------|-----------------|---------------|
|-----------------|-----------------|-----------------|---------3--3--|
|-7-7-7-7-7-7-7-7-|-7-7-7-7-10--10--|-7-7-7-7-7-7-7-7-|-7-7-7-7-3--3--|
|-5-5-5-5-5-5-5-5-|-5-5-5-5--8---8--|-5-5-5-5-5-5-5-5-|-5-5-5-5-1--1--|


  E E E E E E E E   E E E E  Q   Q    Q.    Q.   Q    +H     Q.    E
|-----------------|-----------------|---------------|----------------|
|-----------------|-----------------|---------------|----------------|
|-----------------|-----------------|---------------|----------------|
|-----------------|-----------------|---------------|----------------|
|-7-7-7-7-7-7-7-7-|-7-7-7-7-10--10--|-3----10----5--|-(5)----3----10-|
|-5-5-5-5-5-5-5-5-|-5-5-5-5--8---8--|-1-----8----3--|-(3)----1-----8-|


   +Q   Q  +H       E E E E E E E E   E E E E  Q   Q    E E E E E E E E
|-----------------|-----------------|-----------------|-----------------|
|-----------------|-----------------|-----------------|-----------------|
|-----------------|-----------------|-----------------|-----------------|
|-----------------|-----------------|-----------------|-----------------|
|-(10)--5--(5)----|-7-7-7-7-7-7-7-7-|-7-7-7-7-10--10--|-7-7-7-7-7-7-7-7-|
|--(8)--3--(3)----|-5-5-5-5-5-5-5-5-|-5-5-5-5--8---8--|-5-5-5-5-5-5-5-5-|


  E E E E Q  Q    E E E E E E E E   E E E E  Q   Q
|---------------|-----------------|-----------------|
|---------------|-----------------|-----------------|
|---------------|-----------------|-----------------|
|---------3--3--|-----------------|-----------------|
|-7-7-7-7-3--3--|-7-7-7-7-7-7-7-7-|-7-7-7-7-10--10--|
|-5-5-5-5-1--1--|-5-5-5-5-5-5-5-5-|-5-5-5-5--8---8--|


 Chorus
  Q.    Q.   Q    +H     Q.    E    +Q    Q   +H
|---------------|----------------|-------------------|
|---------------|----------------|-------------------|
|---------------|----------------|-------12--(12)----|
|---------------|----------------|-------12--(12)----|
|-3----10----5--|-(5)----3----10-|-(10)--10--(10)----|
|-1-----8----3--|-(3)----1-----8-|--(8)--------------|


  Q.    Q.   Q    +H     Q.    E    +Q    Q   +H
|---------------|----------------|-------------------|
|---------------|----------------|-------------------|
|---------------|----------------|-------12--(12)----|
|---------------|----------------|-------12--(12)----|
|-3----10----5--|-(5)----3----10-|-(10)--10--(10)----|
|-1-----8----3--|-(3)----1-----8-|--(8)--------------|


  W          W           W           W
|----------|----------|-----------|-----------|
|----------|----------|-----------|-----------|
|----------|----------|-----------|-----------|
|----------|----------|-----------|-----------|
|-7--------|-9--------|-10--------|-12--------|
|-5--------|-7--------|--8--------|-10--------|


  E E  E E E E  E E   E E  E E E E  E E
|-------------------|--------------------|
|-------------------|--------------------|
|-----10-------10---|-----10-------10----|
|-----10-------10---|-----10-------10----|
|-8-8--8-8-8-8--8-8-|-8-8--8-8-8-8--8-8--|
|-------------------|--------------------|


   E  E   E   E  E  E   E   E    E  E   E   E  E  E   Q
|-----------------------------|---------------------------|
|-----------------------------|---------------------------|
|-------<12>----------<12>----|-------<12>----------<12>--|
|-------<12>----------<12>----|-------<12>----------<12>--|
|-10-10--10--10-10-10--10--10-|-10-10--10--10-10-10--10---|
|-----------------------------|---------------------------|


  W          W           W           W
|----------|----------|-----------|-------|
|----------|----------|-----------|-------|
|----------|----------|-----------|-------|
|----------|----------|-----------|-------|
|-7--------|-9--------|-10--------|-12----|
|-5--------|-7--------|--8--------|-10----|


  E E  E E E E  E E   E E  E E E E  E E
|-------------------|-------------------|
|-------------------|-------------------|
|-----10-------10---|-----10-------10---|
|-----10-------10---|-----10-------10---|
|-8-8--8-8-8-8--8-8-|-8-8--8-8-8-8--8-8-|
|-------------------|-------------------|


   E  E  E  E  E  E  E  E    E  E  E  E  E  E  Q
|-------------------------|-----------------------|
|-------------------------|-----------------------|
|-------12----------12----|-------12----------12--|
|-------12----------12----|-------12----------12--|
|-10-10-10-10-10-10-10-10-|-10-10-10-10-10-10-10--|
|-------------------------|-----------------------|


  W          +W           +W
|----------|------------|--------*|
|----------|------------|--------*|
|----------|------------|--------*|
|-7--------|-(7)--------|-(7)----*|
|-7--------|-(7)--------|-(7)----*|
|-5--------|-(5)--------|-(5)----*|

Visit us at http://www.myspace.com/mysticelders/
Tap to rate this tab
# A B C D E F G H I J K L M N O P Q R S T U V W X Y Z