Song name
# A B C D E F G H I J K L M N O P Q R S T U V W X Y Z

Misc Unsigned Bands - J Pizzle - Where Dem Hos There They Are chords

Where Dem Ho's? (There They Are)


(Intro)
Yo
Where dem ho's?
I cant find em         (Freestyle)
Yo
Where dem ho's?

e -9-----------------------------------------------------------|
b -10----------------------------------------------------------|
g -11----------------------------------------------------------|
d -11----------------------------------------------------------| (Let ring)
a -9-----------------------------------------------------------|
e -------------------------------------------------------------|
(There they are!)

(Verse one)
e -------------------------------------------------------------|
b -------------------------------------------------------------|
g -------------------------------------------------------------|
d -------------------------------------------------------------|
a -------------    8- 8- 7--------------    8-8-9--------------|
e --7--7--9--9---------      7-- 7--9--9-----------------------|
spend all day lookin' for my ho's
big flat slags in skanky clothes 


e -------------------------------------------------------------|
b -------------------------------------------------------------|
g -------------------------------------------------------------|
d -------------------------------------------------------------|
a --------------8-8-7--------------8-8-9-----------------------|
e --7--7--9--9---------7--7--9--9------------------------------|
Where are they, where are they at
How cant I find them ho's so fat?


e -------------------------------------------------------------|
b -------------------------------------------------------------|
g -------------------------------------------------------------|
d -------------------------------------------------------------|
a --------------8-8-7--------------8-8-9-----------------------|
e 𤪧--9--9---------7--7--9--9------------------------------|
where dem ho's?
where do they be?


e -------------------------------------------------------------|
b -------------------------------------------------------------|
g -------------------------------------------------------------|
d -------------------------------------------------------------|
a --------------8-8-7--------------8-8-9-----------------------|
e --7--7--9--9---------7--7--9--9------------------------------|
where dem ho's?
are they up a tree?


(Chorus)
e -----------9-------------------------------------------------|
b -----------10------------------------------------------------|
g -----------11------------------------------------------------|
d -----------11------------------------------------------------|
a -----9--7--9-------------------------------------------------|
e --7----------------------------------------------------------|
where dem ho's?
(there they are!)


e -----------9-------------------------------------------------|
b -----------10------------------------------------------------|
g -----------11------------------------------------------------|
d -----------11------------------------------------------------|
a -----9--7--9-------------------------------------------------|
e --7----------------------------------------------------------|
where dem ho's?
(there they are!)


e -----------9-------------------------------------------------|
b -----------10------------------------------------------------|
g -----------11------------------------------------------------|
d -----------11------------------------------------------------|
a -----9--7--9-------------------------------------------------|
e --7----------------------------------------------------------|
where dem ho's?
(there they are!)


e -9-----------------------------------------------------------|
b -10----------------------------------------------------------|
g -11----------------------------------------------------------|
d -11----------------------------------------------------------| (Let ring)
a -9-----------------------------------------------------------|
e -------------------------------------------------------------|
(there they are!)


(Verse two)
e -------------------------------------------------------------|
b -------------------------------------------------------------|
g -------------------------------------------------------------|
d -------------------------------------------------------------|
a --------------8-8-7--------------8-8-9-----------------------|
e --7--7--9--9---------7--7--9--9------------------------------| 
I say, why you ho's so high?
Up that tree so near the sky


e -------------------------------------------------------------|
b -------------------------------------------------------------|
g -------------------------------------------------------------|
d -------------------------------------------------------------|
a --------------8-8-7--------------8-8-9-----------------------|
e --7--7--9--9---------7--7--9--9------------------------------|
come on back down to the floor?
to the floor you crazy ho's


e -------------------------------------------------------------|
b -------------------------------------------------------------|
g -------------------------------------------------------------|
d -------------------------------------------------------------|
a --------------8-8-7--------------8-8-9-----------------------|
e --7--7--9--9---------7--7--9--9------------------------------|
Where dem ho's?
From up the tree?


e -------------------------------------------------------------|
b -------------------------------------------------------------|
g -------------------------------------------------------------|
d -------------------------------------------------------------|
a --------------8-8-7--------------8-8-9-----------------------|
e --7--7--9--9---------7--7--9--9------------------------------|
Where dem ho's?
They run from me!?


(Chorus)
e -----------9-------------------------------------------------|
b -----------10------------------------------------------------|
g -----------11------------------------------------------------|
d -----------11------------------------------------------------|
a -----9--7--9-------------------------------------------------|
e --7----------------------------------------------------------|
where dem ho's?
(there they are!)


e -----------9-------------------------------------------------|
b -----------10------------------------------------------------|
g -----------11------------------------------------------------|
d -----------11------------------------------------------------|
a -----9--7--9-------------------------------------------------|
e --7----------------------------------------------------------|
where dem ho's?
(there they are!)


e -----------9-------------------------------------------------|
b -----------10------------------------------------------------|
g -----------11------------------------------------------------|
d -----------11------------------------------------------------|
a -----9--7--9-------------------------------------------------|
e --7----------------------------------------------------------|
where dem ho's?
(there they are!)


e -9-----------------------------------------------------------|
b -10----------------------------------------------------------|
g -11----------------------------------------------------------|
d -11----------------------------------------------------------| (Let ring)
a -9-----------------------------------------------------------|
e -------------------------------------------------------------|
(there they are!)


(Verse three)
e -------------------------------------------------------------|
b -------------------------------------------------------------|
g -------------------------------------------------------------|
d -------------------------------------------------------------|
a --------------8-8-7--------------8-8-9-----------------------|
e --7--7--9--9---------7--7--9--9------------------------------|
How dare those ho's run away
Im your pimp so I tell you to stay


e -------------------------------------------------------------|
b -------------------------------------------------------------|
g -------------------------------------------------------------|
d -------------------------------------------------------------|
a --------------8-8-7--------------8-8-9-----------------------|
e --7--7--9--9---------7--7--9--9------------------------------|
If they just continue to go
Ill shoot them down (stupid ho's)


e -------------------------------------------------------------|
b -------------------------------------------------------------|
g -------------------------------------------------------------|
d -------------------------------------------------------------|
a --------------8-8-7--------------8-8-9-----------------------|
e --7--7--9--9---------7--7--9--9------------------------------|
Where dem ho's?
I found them good


e -------------------------------------------------------------|
b -------------------------------------------------------------|
g -------------------------------------------------------------|
d -------------------------------------------------------------|
a --------------8-8-7--------------8-8-9-----------------------|
e --7--7--9--9---------7--7--9--9------------------------------|
Where dem ho's?
They抮e covered in blood

(Chorus)
e -----------9-------------------------------------------------|
b -----------10------------------------------------------------|
g -----------11------------------------------------------------|
d -----------11------------------------------------------------|
a -----9--7--9-------------------------------------------------|
e --7----------------------------------------------------------|
shot them dead
(there they are)


e -----------9-------------------------------------------------|
b -----------10------------------------------------------------|
g -----------11------------------------------------------------|
d -----------11------------------------------------------------|
a -----9--7--9-------------------------------------------------|
e --7----------------------------------------------------------|
in the head
(there they are)


e -----------9-------------------------------------------------|
b -----------10------------------------------------------------|
g -----------11------------------------------------------------|
d -----------11------------------------------------------------|
a -----9--7--9-------------------------------------------------|
e --7----------------------------------------------------------|
now they抮e dead
(there they are)


e -9-----------------------------------------------------------|
b -10----------------------------------------------------------|
g -11----------------------------------------------------------|
d -11----------------------------------------------------------| (Let ring)
a -9-----------------------------------------------------------|
e -------------------------------------------------------------|
(there they are)

(Outro)
e -------------------------------------------------------------|
b -------------------------------------------------------------|
g -------------------------------------------------------------|
d -------------------------------------------------------------|
a --------------8-8-7--------------8-8-9b----------------------|
e --7--7--9--9---------7--7--9--9------------------------------|
finally I found my ho's
Tap to rate this tab
# A B C D E F G H I J K L M N O P Q R S T U V W X Y Z