Song name
# A B C D E F G H I J K L M N O P Q R S T U V W X Y Z

Misc Unsigned Bands - Benjamin Brett - Storm Clouds chords

Storm Clouds Tab


Intro y verse

|-------x-x-1-1-1-x-x-0-0-0-x-x----------x------|
|-1-1-1-x-x-1-1-1-x-x-1-1-1-x-x-0-0-0-0-x-------|    x8
|-2-2-2-x-x-2-2-2-x-x-0-0-0-x-x-2-2-1-1-x-------|
|-2-2-2-x-x-3-3-3-x-x-2-2-2-x-x-2-2-2-2-x-------|
|-0-0-0-x-x-3-3-3-x-x-3-3-3-x-x-2-2-2-2-x-------|
|-------x-x-1-1-1-x-x-------x-x-0-0-0-0-x-------|

Chorus

|-1-1-1-x-x-0-0-0-x-x-3-3-3-x-x-1-1-1-x-x-|
|-1-1-1-x-x-1-1-1-x-x-3-3-3-x-x-1-1-1-x-x-|
|-2-2-2-x-x-0-0-0-x-x-4-4-4-x-x-2-2-2-x-x-|
|-3-3-3-x-x-2-2-2-x-x-5-5-5-x-x-3-3-3-x-x-|
|-3-3-3-x-x-3-3-3-x-x-5-5-5-x-x-3-3-3-x-x-|
|-1-1-1-x-x-------x-x-3-3-3-x-x-1-1-1-x-x-|


|-1-1-1-x-x-0-0-0-x-x-3-3-3-x-x-3-3-3-x-x-|
|-1-1-1-x-x-1-1-1-x-x-3-3-3-x-x-3-3-3-x-x-|
|-2-2-2-x-x-0-0-0-x-x-4-4-4-x-x-4-4-4-x-x-|
|-3-3-3-x-x-2-2-2-x-x-5-5-5-x-x-5-5-5-x-x-|
|-3-3-3-x-x-3-3-3-x-x-5-5-5-x-x-5-5-5-x-x-|
|-1-1-1-x-x-------x-x-3-3-3-x-x-3-3-3-x-x-|


|-0-0-0-0-0-------0-0-1-1-1-0-0-0-0-0-0-|
|-1-1-1-0-0-0-0-0-0-0-1-1-1-0-0-1-1-1-0-|
|-2-2-2-0-0-1-1-1-0-0-2-2-2-0-0-0-0-0-0-|
|-2-2-2-0-0-2-2-2-0-0-3-3-3-0-0-2-2-2-0-|
|-0-0-0-0-0-2-2-2-0-0-3-3-3-0-0-3-3-3-0-|
|-------0-0-0-0-0-0-0-1-1-1-0-0-------0-|

|-0-0-0-0-0-------0-0-1-1-1-x-x-3-3-3-x-x|
|-1-1-1-0-0-0-0-0-0-0-1-1-1-x-x-3-3-3-x-x|
|-2-2-2-0-0-1-1-1-0-0-2-2-2-x-x-4-4-4-x-x|
|-2-2-2-0-0-2-2-2-0-0-3-3-3-x-x-5-5-5-x-x|
|-0-0-0-0-0-2-2-2-0-0-3-3-3-x-x-5-5-5-x-x|
|-------0-0-0-0-0-0-0-1-1-1-x-x-3-3-3-x-x|


2nd Verse

|-------x-x-1-1-1-x-x-0-0-0-x-x----------x--------|
|-1-1-1-x-x-1-1-1-x-x-1-1-1-x-x-0-0-0-0-x|    x10-|
|-2-2-2-x-x-2-2-2-x-x-0-0-0-x-x-2-2-1-1-x---------|
|-2-2-2-x-x-3-3-3-x-x-2-2-2-x-x-2-2-2-2-x---------|
|-0-0-0-x-x-3-3-3-x-x-3-3-3-x-x-2-2-2-2-x---------|
|-------x-x-1-1-1-x-x--------x-x-0-0-0-0-x--------|


Solo...

|------------------------------0-0-0-0-0-|
|------------------0-1-0---0---1-1-1-1-0-|
|----2-----2-----2-------2-----2-2-0-0-1-|
|------------------------------2-2-2-2-2-|
|-0--------------------------------------|
|-------3-----0--------------------------|


|----19-20-19-17-15-15-15-15-15-15-15-15--------|
|--17----------------17-17-17-17-15-15-15-13----|
|14---------------------------------------------|
|-----------------------------------------------|
|-----------------------------------------------|
|-----------------------------------------------|

|---------------------------------------------------|
|-------------17------------------------------------|
|-14-16-17-19--19-17-16-----------------------------|
|-------------------------17-17-17-17--17-17-17-x---|
|-------------------------15-15-15-15--14-14-14-x---|
|---------------------------------------------------|

|----19-20-19-17-15-15-15-15-15-15-15-15--------|
|--17----------------17-17-17-17-15-15-15-13----|
|14---------------------------------------------|
|-----------------------------------------------|
|-----------------------------------------------|
|-----------------------------------------------|

|------------------------------------------------------|
|-15-13-15-13-13-12-13-12-12--10--9--10--9--10--9------|
|------------------------------------------------------|
|------------------------------------------------------|
|------------------------------------------------------|
|------------------------------------------------------|

 |-x-x-|
 |-x-x-|
 |-x-x-|
 |-x-x-|
 |-x-x-|
 |-x-x-|

Last verse

|-------x-x-1-1-1-x-x-0-0-0-x-x----------x-----|
|-1-1-1-x-x-1-1-1-x-x-1-1-1-x-x-0-0-0-0-x------|    x4
|-2-2-2-x-x-2-2-2-x-x-0-0-0-x-x-2-2-1-1-x------|
|-2-2-2-x-x-3-3-3-x-x-2-2-2-x-x-2-2-2-2-x------|
|-0-0-0-x-x-3-3-3-x-x-3-3-3-x-x-2-2-2-2-x------|
|-------x-x-1-1-1-x-x--------x-x-0-0-0-0-x-----|


Last Chorus

|-1-1-1-x-x-0-0-0-x-x-3-3-3-x-x-1-1-1-x-x-|
|-1-1-1-x-x-1-1-1-x-x-3-3-3-x-x-1-1-1-x-x-|
|-2-2-2-x-x-0-0-0-x-x-4-4-4-x-x-2-2-2-x-x-|
|-3-3-3-x-x-2-2-2-x-x-5-5-5-x-x-3-3-3-x-x-|
|-3-3-3-x-x-3-3-3-x-x-5-5-5-x-x-3-3-3-x-x-|
|-1-1-1-x-x-------x-x-3-3-3-x-x-1-1-1-x-x-|


|-1-1-1-x-x-0-0-0-x-x-3-3-3-x-x-3-3-3-x-x-|
|-1-1-1-x-x-1-1-1-x-x-3-3-3-x-x-3-3-3-x-x-|
|-2-2-2-x-x-0-0-0-x-x-4-4-4-x-x-4-4-4-x-x-|
|-3-3-3-x-x-2-2-2-x-x-5-5-5-x-x-5-5-5-x-x-|
|-3-3-3-x-x-3-3-3-x-x-5-5-5-x-x-5-5-5-x-x-|
|-1-1-1-x-x-------x-x-3-3-3-x-x-3-3-3-x-x-|

|-0-0-0-0-0-------0-0-1-1-1-0-0-0-0-0-0-|
|-1-1-1-0-0-0-0-0-0-0-1-1-1-0-0-1-1-1-0-|
|-2-2-2-0-0-1-1-1-0-0-2-2-2-0-0-0-0-0-0-|
|-2-2-2-0-0-2-2-2-0-0-3-3-3-0-0-2-2-2-0-|
|-0-0-0-0-0-2-2-2-0-0-3-3-3-0-0-3-3-3-0-|
|-------0-0-0-0-0-0-0-1-1-1-0-0-------0-|

|-0-0-0-0-0-------0-0-1-1-1-x-x-3-3-3-x-x|
|-1-1-1-0-0-0-0-0-0-0-1-1-1-x-x-3-3-3-x-x|
|-2-2-2-0-0-1-1-1-0-0-2-2-2-x-x-4-4-4-x-x|
|-2-2-2-0-0-2-2-2-0-0-3-3-3-x-x-5-5-5-x-x|
|-0-0-0-0-0-2-2-2-0-0-3-3-3-x-x-5-5-5-x-x|
|-------0-0-0-0-0-0-0-1-1-1-x-x-3-3-3-x-x|

|-0-0-0-0-0-------0-0-1-1-1-0-0-0-0-0-0-|
|-1-1-1-0-0-0-0-0-0-0-1-1-1-0-0-1-1-1-0-|
|-2-2-2-0-0-1-1-1-0-0-2-2-2-0-0-0-0-0-0-|
|-2-2-2-0-0-2-2-2-0-0-3-3-3-0-0-2-2-2-0-|
|-0-0-0-0-0-2-2-2-0-0-3-3-3-0-0-3-3-3-0-|
|-------0-0-0-0-0-0-0-1-1-1-0-0-------0-|

|-0-0-0-0-0-------0-0-1-1-1-x-x-3-3-3--x-x--0---|
|-1-1-1-0-0-0-0-0-0-0-1-1-1-x-x-3-3-3--x-x--1---|
|-2-2-2-0-0-1-1-1-0-0-2-2-2-x-x-4-4-4--x-x--2---|
|-2-2-2-0-0-2-2-2-0-0-3-3-3-x-x-5-5-5--x-x--2---|
|-0-0-0-0-0-2-2-2-0-0-3-3-3-x-x-5-5-5--x-x--0---|
|-------0-0-0-0-0-0-0-1-1-1-x-x-3-3-3--x-x------|


Lyrics:

Regret, regret the way I tore the page and upset, the balance,
I flex my bone-cold fingers and an avalanche sweeps away my head,
An avalanche sweeps away my head

Recently, I've spent most of my time, backstabbing breaking windows,
Far out of the firing line,
Left out to soak in the rain I remember what you used to say,

Bar all your windows, lock all your doors,
The time for change  was months before we met,
But I know you would never hurt me, I know you would never try,
But the stormclouds are gathering,
Now i can't see the sky

You make a telephone call, with a razorblade to send down the line with love,
Pull out your photographs, and burn them up like effigies of someone from the distant past,
I flex my bone-cold fingers and an avalanche sweeps away my head,
An avalanche sweeps away my head

(SOLO)

I'd never mean to hurt you, I'd never mean to hurt you,  I'd never mean to hurt you, But 
avalanche swept away my head

Bar all your windows, lock all your doors,
The time for change  was months before we met,
But I know you would never hurt me, I know you would never try,
But the stormclouds are gathering,
Now i can't see,
I know you would never hurt me, I know you would never try,
But the stormclouds are gathering,
Now i can't see the sky
Tap to rate this tab
# A B C D E F G H I J K L M N O P Q R S T U V W X Y Z