Song name
# A B C D E F G H I J K L M N O P Q R S T U V W X Y Z

Misc Unsigned Bands - The Ones You Fear - Interlude 1 chords

e-|-----------|-----------|-----------------------------|-------------------|
B-|-----------|-----------|-----------------------------|-------------------|
G-|-----------|-----------|-----------------------------|-------------------|
D-|-----------|-----------|-----2-------2-------2-------|-----2-------2-----|
A-|-----------|-----------|---2---2---2---2---2---2-----|---2---2---2---2---|
E-|-4-3-2-1-2-|-4-3-2-1-0-|-0-------2-------0-------2---|-0-------2-------0-|


e-|-----------------|-------------------------------------------|
B-|-----------------|-------------------------------------------|
G-|-----------------|-------------------------------------------|
D-|-----2-----------|-------2-------2-------2-------------------|
A-|---2---2---------|-----2---2---2---2---2---2-----------------|
E-|---------2-1-2---|---0-------2-------0-------2-3-2-3-2-3-2---|
Tap to rate this tab
 
# A B C D E F G H I J K L M N O P Q R S T U V W X Y Z