Song name
# A B C D E F G H I J K L M N O P Q R S T U V W X Y Z

Misc Unsigned Bands - Free Credit Report - Cell Phone tab

Free Credit Report -- Cell Phone

VERSE:
e|------------------------------|
B|------------------------------|
G|---------------------6---4----|
D|-7-4--7-4--7-4--7-4-----------|
A|------------------------------|
E|------------------------------|

e|------------------------------|
B|------------------------------|
G|---------------------6---4----|
D|-7----7----7----7-------------|
A|---7----7----7----7-----------|
E|------------------------------|

VOCAL MELODY(timed out as best I could w/o figuring out rhythm):

   free credit report  dot   com
e|---------------------------------|
B|---------------------------------|
G|---------------------------4-----|
D|-7----7--4---7--4----7-----------|
A|---------------------------------|
E|---------------------------------|

   thats where I  shoulda  gone
e|------------------------------|
B|------------------------------|
G|-6-------6---7---6---4--------|
D|-------------------------7----|
A|------------------------------|
E|------------------------------|

   coulda  got my knowlege on
e|-----------------------------|
B|-----------------------------|
G|-6---6---6---7---6---4-------|
D|-------------------------7---|
A|-----------------------------|
E|-----------------------------|

BRIDGE(not totally sure if this is right,
       but it's just a commercial, so...)
e|------------------------------|
B|------------------------------|
G|-2-2--2-2--2-2--2-2--6---4----|
D|-4-4--4-4--4-4--4-4--7---7----|
A|-0-0--0-0--0-0--0-0--0-0-0-0--|
E|------------------------------|
 |
e|------------------------------|
B|------------------------------|
G|---------------------6---4----|
D|-7-4--7-4--7-4--7-4-----------|
A|------------------------------|
E|------------------------------|

e|------------------------------|
B|------------------------------|
G|-2-2--2-2--2-2--2-2--6---4----|
D|-2-2--2-2--2-2--2-2--7---7----|
A|-0-0--0-0--0-0--0-0--0-0-0-0--|
E|------------------------------|
 |
e|------------------------------|
B|------------------------------|
G|---------------------6---4----|
D|-7----7----7----7-------------|
A|---7----7----7----7-----------|
E|------------------------------|

VERSE 1:
Wanted to get myself a new cell phone
So I could hear myself as a ringtone
Who knew the store would go and check my credit score
Now all they let me have is this dinosaur

VERSE 2:
Hello hello hello, can anybody hear me?
I know I know I know, I should have gone to
Free Credit Report dot com
That's where I shoulda gone, coulda got my knowledge on.
Tap to rate this tab
 
# A B C D E F G H I J K L M N O P Q R S T U V W X Y Z