Song name
# A B C D E F G H I J K L M N O P Q R S T U V W X Y Z

Misc Unsigned Bands - Before Braille - Merry Christmas Im Cheating Acoustic tab

-------------------------------------------------------------------------------
             Merry Christmas I'm Cheating(acoustic) – Before Braille
-------------------------------------------------------------------------------
Tabbed by: The Alamo
Email:falamo@asu.edu

Tuning:Standard
 
Intro
e|----7-----7-----7-----7-----7-|-5-2---------------5-----5------------------|
B|--7-----7-----7-----7-----7---|-----5-3-2-3-----5-----5-----5--------------|
G|4-----4-----4-----4-----4-----|-------------2-------2-----2----------------|
D|------------------------------|--------------------------------------------|
A|------------------------------|--------------------------------------------|
E|------------------------------|--------------------------------------------|
   Merry Christmas I'm cheating, and I have been for some time...
e|---------------------------------------------------------------------------|
B|---------------------------------------------------------------------------|
G|-4-strum---------------------7---------------------------------------------|
D|-4---------------------------7-------7-------------------------------------|
A|-2---------------------------5-------7-------------------------------------|
E|-------------------------------------5-------------------------------------|
              “And when you sleep...”
e|---------------------------------------------------------------------------|
B|-----------2---------------------------------------------------------------|
G|-4----4-4--2---------------------------------------------------------------|
D|-4----4-4--2---------------------------------------------------------------|
A|-0h2--2-2--0---------------------------------------------------------------|
E|---------------------------------------------------------------------------|
  screams and all that comes with that, tears and all the after math
e|---------------------------------------------------------------------------|
B|---------------------------------------------------------------------------|
G|---------------------------------------------------------------------------|
D|7-------------------------------------5------------------------------------|
A|7-hold--------------------------------5-hold-------------------------------|
E|5-------------------------------------3------------------------------------|
  @~2:26 he plays this
e|---------------------------------------------------------------------------|
B|---------------------------------------------------------------------------|
G|-4-4-----------------------------------------------------------------------|
D|-4-4--4-4-4-4--5-5---------------------------------------------------------|
A|-2-2--4-4-4-4--5-5---------------------------------------------------------|
E|------2-2-2-2--3-3---------------------------------------------------------|



| /  slide up
| \  slide down
| h  hammer-on
| p  pull-off
| ~  vibrato
| +  harmonic
| x  Mute note
==========================================================================
Tap to rate this tab
 
# A B C D E F G H I J K L M N O P Q R S T U V W X Y Z