Song name
# A B C D E F G H I J K L M N O P Q R S T U V W X Y Z

Misc Unsigned Bands - The Plax - Geschmack Ist King chords

Highlighted       Show chord diagrams
                                 The Plax - Geschmack ist king!

Gitarren Tab,
EADGHe-tuned

Strophe:
      E5       G#5
1|---------|---------|
2|---------|---------|
3|---------|---------|    6x Motiv
4|----2----|----6----|
5|----2----|----6----|
6|----0----|----4----|

Bridge/Pre-Chorus:
      A5       G5         H5       A5
1|---------|---------|---------|---------|
2|---------|---------|---------|---------|
3|---------|---------|---------|---------|
4|----7----|----5----|----4----|----2----|
5|----7----|----5----|----2----|----0----|
6|----5----|----3----|----2----|----0----|

Refrain:
     F#5       C#5        H5       C#5
1|---------|---------|---------|---------|
2|---------|---------|---------|---------|
3|---------|---------|---------|---------|
4|----4----|----6----|----4----|----6----|
5|----4----|----4----|----2----|----4----|
6|----2----|----4----|----2----|----4----|


Edited by 
Jonas
Tap to rate this tab
# A B C D E F G H I J K L M N O P Q R S T U V W X Y Z