Song name
# A B C D E F G H I J K L M N O P Q R S T U V W X Y Z

Misc Unsigned Bands - Maxxx - The Dizzy Head Project tab

Maxxx

Guitar Written By Rick "Dizzy13" Solis

Performed By The Dizzy Head Project

Tabbed By Rick "Dizzy" Solis

Tuning: Standard

BPM: TBA

Idea Date: unknow
Original Drum Idea by Ed "Head" Haspadura

Finished Tabbed Idea: December 16, 2009--(12:10 a.m.)



|-------------------|play 3X---|
|-------------------|          |
|------9-----10---9-|          |
|------9-----10---9-|          |
|------7-----8----7-|          |
|--0-0---0-0----0---|          |Play 2X
|                              |
|------------|                 |
|------------|                 |
|------------|only play        |
|--7-5-3---3-|the 1st X        |
|--7-5-3-2-3-|                 |
|--5-3-1-0-1-|-----------------|

Drum Break

|-------------------|play 3X---|
|-------------------|          |
|------9-----10---9-|          |
|------9-----10---9-|          |
|------7-----8----7-|          |
|--0-0---0-0----0---|          |Play 5X
|                              |
|------------|                 |
|------------|                 |
|------------|                 |
|--7-5-3---3-|                 |
|--7-5-3-2-3-|                 |
|--5-3-1-0-1-|-----------------|


|Play2X
|---------------------------------------|-------------------------|
|---------------------------------------|                         |
|------4-----4---4-------4-----4---4----|                         |
|------2-----2---2-------2-----2---2----|                         |
|------2-----2---2-------2-----2---2----|                         |
|--0-0---0-0---0-----0-0---0-0---0------|                         |
|                                       |                         |
|---------------------------------------|                         |
|---------------------------------------|                         |
|-----------------------------------------------------------|     |
|--------12--------12-----12----------10----------10-----10-|     |
|--12-12-12--12-12-12--12-12---10--10-10---10--10-10--10-10-|     |
|--10-10-----10-10-----10------8---8-------8---8------8-----|-----|
|
|
|
|-------------------------------------------|--------------|
|-------------------------------------------|--------------|Play 3X
|-----4-------3-------4------3------4-----3-|--------------|
|-----2-------1-------2------1------2-----3-|--3---5-3---3-|
|-----2-------1-------2------1------2-----1-|--3---5-3-2-3-|
|-0000----0000----0000---0000---0000---0000-|--1---3-1-0-1-|
|
|--------------------|
|--------------------|Play 2X
|-----------4------3-|
|-----------2------1-|
|-----------2------1-|
|-------0000---0000--|


|-------------------|play 3X---|
|-------------------|          |
|------9-----10---9-|          |
|------9-----10---9-|          |
|------7-----8----7-|          |
|--0-0---0-0----0---|          |Play 3X
|                              |
|------------|                 |
|------------|                 |
|------------|                 |
|--7-5-3---3-|                 |
|--7-5-3-2-3-|                 |
|--5-3-1-0-1-|-----------------|


|----------------|
|----------------|Play 2X
|------4-----4---|
|------2-----2---|
|------2-----2---|
|--0-0---0-0-----|




|------------------------------------|------------|
|------------------------------------|------------|Play 3X
|------4-----4---4-------4-----4---4-|----------4-|
|------2-----2---2-------2-----2---2-|--8-3-5-3-2-|
|------2-----2---2-------2-----2---2-|--8-3-5-3-2-|
|--0-0---0-0---0-----0-0---0-0---0---|--6-1-3-1-0-|
|
|-------------------------------------------|
|-------------------------------------------|
|-----4-------3-------4------3------4-----3-|
|-----2-------1-------2------1------2-----3-|
|-----2-------1-------2------1------2-----1-|
|-0000----0000----0000---0000---0000---0000-|



|-------------------|play 3X---|
|-------------------|          |
|------9-----10---9-|          |
|------9-----10---9-|          |
|------7-----8----7-|          |
|--0-0---0-0----0---|          |play 1X
|                              |
|------------|                 |
|------------|                 |
|------------|                 |
|--7-5-3---3-|                 |
|--7-5-3-2-3-|                 |
|--5-3-1-0-1-|-----------------|
|
|-------------------|play 2X
|-------------------|
|------9-----10---9-|
|------9-----10---9-|
|------7-----8----7-|
|--0-0---0-0----0---|
|
|-----------------------------------------|
|-----------------------------------------|
|-----------------------------------------|
|--9-10-7-7-7-9---10-7-7-7-9---10-7-7-7-9-|
|--9-10-7-7-7-9---10-7-7-7-9---10-7-7-7-9-|
|--7-8--5-5-5-7---8--5-5-5-7---8--5-5-5-7-|
|
|-------------------------------|
|-----------------play 3X-------|
|-------------------------------|
|-10-7-7-7----------------------|
|-10-7-7-7----------------------|
|-8--5-5-5----------------------|



|------------------------------|---------------|-------------|
|------------------------------|---------------|-------------|Play 3X
|-----4-------3-------4------3-|------4------3-|-----4-----3-|
|-----2-------1-------2------1-|------2------3-|-----2-----1-|
|-----2-------1-------2------1-|------2------1-|-----2-----1-|
|-0000----0000----0000---0000--|--0000---0000--|-0000---0000-|



|-------------------|-----------------|
|-play 14X----------|Ending Pause Riff|
|------9-----10---9-|----9-9-9-9------|
|------9-----10---9-|----9-9-9-9------|
|------7-----8----7-|----7-7-7-7------|
|--0-0---0-0----0---|----0-0-0-0------|
Tap to rate this tab
# A B C D E F G H I J K L M N O P Q R S T U V W X Y Z