Song name
# A B C D E F G H I J K L M N O P Q R S T U V W X Y Z

Misc Unsigned Bands - Ennui Breathes Malice - When Curiosity Kills A Dog tab

Ennui Breathes Malice
When Curiosity Kills A Dog
Tabbed by: Kushman
Tuning: Drop B

Legend: h = Hammer-On
        p = Pull-Off
        . = Palm Mute
      *7* = Harmonic Pinch
        \ = Slide

|----------------------------------|
|--12--15--14--15--17--15--14--12--|
|----------------------------------|
|----------------------------------|
|----------------------------------|
|----------------------------------|

|-------------14---------------------------------|
|--15--14--15----14--15--17--15--14--12--10--8---|
|----------------------------------------------11|
|------------------------------------------------|
|------------------------------------------------|
|------------------------------------------------|

|--------------17--------14----------------------|
|---15--14--15----15--14-------------------------|
|------------------------------------------------|
|------------------------------------------------|
|------------------------------------------------|
|------------------------------------------------|

|--17--15--14---------------------------------------|
|-------------19--17--15---17--15--14---15--14--12--|
|---------------------------------------------------|
|---------------------------------------------------|
|---------------------------------------------------|
|---------------------------------------------------|

|-------------------------------------------------------|
|--------------------15p14p12-14-15p14p12-14-15p14p12-14|
|---14--12----------------------------------------------|
|----------16p14h16-------------------------------------|
|-------------------------------------------------------|
|-------------------------------------------------------|

|--15p14p12-14-14p13p12-14--15--14--12--10--12--14~~---|
|------------------------------------------------------|
|------------------------------------------------------|
|------------------------------------------------------|
|------------------------------------------------------|
|------------------------------------------------------|

|-----------------------------------------------------------|
|-----------------------------------------------------------|
|-----------------------------------------------------------|
|-------------------------------------------10---8h10-*7*---|
|--0-0-5-0-7-0-8-0-10-8-7-5-7-10-8-7----0-0----0------------|
|-----------------------------------------------------------|
   . .   .   .   .                      . .    .

|1.------------------|2.-------------------|
|--------------------|---------------------|
|--------------------|---------------------|
|------8---7-5-------|-5-5-5-5-------------|
|--0-0---0-----7-5---|-5-5-5-5-------------|
|--------------------|-5-5-5-5-------------|
   . .   .             . . . .

|----------------------------------------------------------------------------|
|----------------------------------------------------------------------------|
|----------------------------------------------------7-----------------------|x4
|------------------------------------------10---8h10------10---8h10--8--7----|
|-0-0-5-0-7-0-8-0-10-8-7-5-7-10-8-7----0-0----0-------0-0----0---------------|
|----------------------------------------------------------------------------|
  . .   .   .   .                      . .    .       . .    .


|---------------------------------------|
|---------------------------------------|
|---------------------------------------|
|---------------------------------------|
|--0000-0000-0000-0000------------------|
|--0000-0000-0000-0000--3-3-3-3-2-2-1-1-|
   .... .... .... ....

|--------------------------------------------|
|--------------------------------------------|
|--------------------------------------------|
|--------------------------------------------|
|--0--000--000-000-000--000-000-000--000-000-|
|--0--000--000-000-000--000-000-000--000-000-|
   .  ...  ... ... ...  ... ... ...  ... ...

|1.---------------------|2.----------------------------------|
|-----------------------|------------------------------------|
|-----------------------|------------------------------------|(10's)
|-----------------------|--------------------10101010-9999---|
|--8888-9999-6666-5555--|-----8888-9999----------------------|
|-----------------------|------------------------------------|

|------------------------------------------------------|
|------------------------------------------------------|
|-----------------------------------------------------7|
|-------------------------------------------10---8h10--|
|--0-0-5-0-7-0-8-0-10-8-7-5-7-10-8-7----0-0----0-------|
|------------------------------------------------------|
   . .   .   .   .                      . .    .

|1.--------------------|2.----------------------|
|----------------------|------------------------|
|----------------------|------------------------|
|----10---8h10--8--7---|------------------------|
|0-0----0--------------|--8--4--7--3------------|
|----------------------|--8--4--7--3------------|
 . .    .                 .  .  .  .

|----------------------------------------------------------------------------|
|----------------------------------------------------------------------------|
|-----------------------------------------------------*7*--------------------|x5
|-------------------------------------------10---8h10-------10---8h10--8--7--|
|--0-0-5-0-7-0-8-0-10-8-7-5-7-10-8-7----0-0----0--------0-0----0-------------|
|----------------------------------------------------------------------------|
   . .   .   .   .                      . .    .        . .    .

|-------------------------------------------------------------------------|
|-------------------------------------------------------------------------|
|-------------------------------------------------*7*---------------------|
|---------------------------------------10---8h10--------10---8h10-8-7----|
|-0000-0-0-0-0000-0-0-0-0000-0-0-0--0-0----0---------0-0----0-------------|
|-0000-0-0-0-0000-0-0-0-0000-0-0-0----------------------------------------|
  .... . . . .... . . . .... . . .  . .    .         . .    .

|--------------------------------------------------|
|--------------------------------------------------|
|--------------------------------------------------|
|-00002222-----------------------------------------|
|---------333322221111-----------------------------|
|---------------------333322221111--0--------------|

|-------------------------------------------|
|-------------------------------------------|
|-------------------------------------------|
|-------------------------------------------|
|-0--000--000-000-000--000-000-000--000-000-|
|-0--000--000-000-000--000-000-000--000-000-|
  .  ...  ... ... ...  ... ... ...  ... ...

|1.---------------------|2.----------------------------------|
|-----------------------|------------------------------------|
|-----------------------|-------------*7*~~------------------|
|-----------------------|------------------------------------|
|--8888-9999-6666-5555--|------------------------------------|
|-----------------------|------------------------------------|

|-------------------------------------------|
|-------------------------------------------|
|-------------------------------------------|
|-------------------------------------------|
|-0--000--000-000-000--000-000-000--000-000-|
|-0--000--000-000-000--000-000-000--000-000-|
  .  ...  ... ... ...  ... ... ...  ... ...

|1.---------------------|2.----------------------------------|
|-----------------------|------------------------------------|
|-----------------------|------------------------------------|(10's)
|-----------------------|--------------------10101010-9999---|
|--8888-9999-6666-5555--|-----8888-9999----------------------|
|-----------------------|------------------------------------|

|---------------------------------|
|-12--15--14--17--15--14--12------|
|---------------------------------|
|---------------------------------|
|---------------------------------|
|---------------------------------|

|-------------14----------------------------------------|
|--15--14--15----15--14--15--17--15--14--12--10--8------|
|--------------------------------------------------11~~-|
|-------------------------------------------------------|
|-------------------------------------------------------|
|-------------------------------------------------------|

|-------------------------------|
|-------------------------------|
|-14p12-------------------------|
|------16p14h16--12p9-----------|
|---------------------14p12h14--|
|-------------------------------|

|--------------------------12h14h15------17p15p14-14~~--15-14-12--------|
|------------------12h14h15---------15--------------------------15-14-12|
|----------12h14h15-----------------------------------------------------|
|--12h14h15-------------------------------------------------------------|
|-----------------------------------------------------------------------|
|-----------------------------------------------------------------------|

|--17--15-14-14h15p14--------------------------------------------|
|---------------------17-15-14--15-14-12-------------------------|
|----------------------------------------14-12-11----------------|
|-------------------------------------------------14-12----------|
|-------------------------------------------------------14-12\---|
|----------------------------------------------------------------|

|----------------------------------------------------------------------|
|----------------------------------------------------------------------|
|----------------------------------------------------------------------|
|----------------------------------------------------------------------|
|--0-000--000-000-000--000-000-000--0-000--000-000-000--000-000--000-00|
|--0-000--000-000-000--000-000-000--0-000--000-000-000--000-000--000-00|
   . ...  ... ... ...  ... ... ...  . ...  ... ... ...  ... ...  ... ..

|1.---------------------|2.----------------------------------|
|-----------------------|------------------------------------|
|-----------------------|------------------------------------|(10's)
|-----------------------|-------------10---9-----------------|
|--8888-9999-6666-5555--|-----8---9--------------------------|
|-----------------------|------------------------------------|

|--------------------------------------------------------------|
|--------------------------------------------------------------|
|--------------------------------------------------------------|Slow it down
|--------------------------------------------------------------|
|-0-000--000-000-000--000-000--000-00--------------------------|
|-0-000--000-000-000--000-000--000-00--------------------------|
  . ...  ... ... ...  ... ...  ... ..

|1.---------------------|2.------------------------------------|
|-----------------------|--------------------------------------|
|-----------------------|--------------------------------------|(10's)
|-----------------------|----------------10101010-9999---0-----|
|--8888-9999-6666-5555--|-----8888-9999------------------0-----|
|-----------------------|--------------------------------0-----|

I had to make this up by ear so its probably not 100% correct. Also I only spent 2 days on it :p
But give it a try and I hopefully Ill see some of your covers on YouTube.

Later.
YouTube = xXKushmanXx
Tap to rate this tab
 
# A B C D E F G H I J K L M N O P Q R S T U V W X Y Z