Song name
# A B C D E F G H I J K L M N O P Q R S T U V W X Y Z

Misc Unsigned Bands - A Simple Auld Salad - Ca Bhfuil Mo Brogai chords

Highlighted       Show chord diagrams
verse:
       Am   D   G   E
E||---------3---3--------------||
B||----1----2---3--------------||
G||*---2----3---0----1--------*||
D||*---2--------0----2--------*||
A||-------------2----2---------||
E||-------------3--------------||



chorus chords:
      G   C   B   A
E||---3-------2---------------||
B||---3---1---3---2-----------||
G||*--0---0---3---2----------*||
D||*--0---2---3---2----------*||
A||---2---3---2---------------||
E||---3-----------------------||


the chorus chords may be off since its very hard to hear the over the tin whistle.


Tap to rate this tab
 
# A B C D E F G H I J K L M N O P Q R S T U V W X Y Z