Song name
# A B C D E F G H I J K L M N O P Q R S T U V W X Y Z

Misc Unsigned Bands - Ginjineko - Joy To The World tab

e-12--11-9-------------------|--7--9-9--11-11--12---|
b-----------12--10-9-7h9-7-5-|----------------------|
g----------------------------|----------------------|
d----------------------------|----------------------|
a----------------------------|----------------------|
E----------------------------|----------------------|

e------------------------|---------------------|
b------------------------|---------------------|
g-9--8-6-----------------|-----------8-8--9----|
d---------9--7-6h7-------|-9--11-11------------|
a-------------------9-7--|---------------------|
E------------------------|---------------------|

e-----------------------|    |----------------------------|
b-----------------------|    |----------------------------|
g-9-9--8-8--6-----------|    |----------------------------|       *unfinished..pleasehelp..
d--------------9---7s6--|2x  |-6--666--7-9---4--444--6-7--|
a-----------------------|    |----------------------------|
E-----------------------|    |----------------------------|
Tap to rate this tab
# A B C D E F G H I J K L M N O P Q R S T U V W X Y Z