Song name
# A B C D E F G H I J K L M N O P Q R S T U V W X Y Z

Misc Unsigned Bands - Supahfast198 - Harmonic Metal Wip tab

haha.. it looks so professional 

Standard Tuning (E)


(Legend)
/  - Slide up
\  - Slide down
.   Palm mute
h   Hammer-on
p   Pull-off
~  - Vibrato
X\  Pick slide
(7)- Ghost Note
W  - Whole Note
H  - Half Note
F  - Fourth Note  Trills are 12th notes (3x as fast as 4th)
E  - Eighth Note
S  - Sixteenth Note
T  - Thirty-Second Note (?)
 
Gtr 1.
   F  F F  F F F F F F F F F F F F  F
e|------------------------------------|
B|------------------------------------|
G|------------------------------------| x4
D|------------------------------------|
A|---/7-10-7-9-7---7-----7-----7----7-|
E|-0-------------7---7-8---8-9---10---|
   .                 . .   . .   .    |
Gtr 2.                                |
   F F F EEEEEEF EEF H   F H   H      |
e|------------------------------------|
B|------------------------------------|
G|-----------------4-5---5-6---7\-----| x4
D|-2-2-2-------2---4-5---5-6---7\-----|
A|-2-2-2-------2---2-3---3-4---5\-----|
E|-0-0-0-0000000-00-------------------|
   . .   ......  ... .   . .
 
Gtr 1.
   F  F F  F F S S S F F F F F F F F F  F
e|----------------------------------------|
B|----------------------------------------|
G|----------------------------------------| x3
D|----------------------------------------|
A|---/7-10-7-9-7h9p7---------7-----7----7-|
E|-0-----------------8-7-7-8---8-9---10---|
   .                     . .   . .   .    |
Gtr 2.                                    |
   F  F F F F S S S F F F F F F F F F F   |
e|----------------------------------------|
B|----------------------------------------|
G|------4---------------------------------| x3
D|---/5---5-7-5h7p5-4-------4---4-7-4-5---|
A|--------------------7-6-7---7-----------|
E|-0--------------------------------------|
   .                    . .   . .   .
 
Gtr 1.
   F  F F  F F S S S F F F F F F F F F  W
e|-------------------------------------------|
B|-------------------------------------------|
G|-------------------------------------------|
D|-------------------------------------------|
A|---/7-10-7-9-7h9p7---------7-----7----7~~~-|
E|-0-----------------8-7-7-8---8-9---10------|
   .                     . .   . .   .       |
Gtr 2.                                       |
   F  F F F F S S S F F F F F F F F F W      |
e|-------------------------------------------|
B|-------------------------------------------|
G|------4------------------------------------|
D|---/5---5-7-5h7p5-4-------4---4-7-4-5~~~---|
A|--------------------7-6-7---7--------------|
E|-0-----------------------------------------|
   .                    . .   . .   .
 
Gtr 1.
       F  H  H F E E  E E F H  H F E E E
e|-------------------------------------------|
B|-------------------------------------------|
G|-------------------------------------------|
D|-------------------------------------------|
A|-(7)/10-10~9~9-9h10p9\7-6-6\---------------|
E|----------------------------/8-7-7h8p7-----|
       F  H  H F E E  H   F H  H F E E E     | x2
e|-------------------------------------------|
B|-------------------------------------------|
G|-------------------------------------------|
D|-------------------------------------------|
A|-(7)/10-10~9~9-9h10p12--9-9\---------------|
E|----------------------------/8-7-7h8p7-----|
                                             |
Gtr 2.                                       |
       F H H F E E E E F H  H F E E E        |
e|-------------------------------------------|
B|-------------------------------------------|
G|-------------------------------------------|
D|-(5)/9-9-7-7-7h9p7\5-4-4\------------------|
A|-------------------------/7-6-6h7p6--------|
E|-------------------------------------------|
       F H H F E E H  F H  H F E E E         | x2
e|-------------------------------------------|
B|-------------------------------------------|
G|-------------------------------------------|
D|-(5)/9-9-7-7-7h9p10-7-7\-------------------|
A|------------------------/7-6-6h7p6---------|
E|-------------------------------------------|
 
Gtr 1. W     H    F   H
e|--------------------X\---------------------|
B|--------------------X\---------------------|
G|--------------------X\---------------------|
D|-------------------------------------------|
A|----/10~~~(10)-(10)------------------------|
E|-------------------------------------------|
                                             |
Gtr 2. W     H    F   (H)                    |
e|-------------------------------------------|
B|-------------------------------------------|
G|-------------------------------------------|
D|-------------------------------------------|
A|-------------------------------------------|
E|----/12~~~(12)-(12)------------------------|

Gtr 2. - Lighter Distortion
   E E SSS F E E E E SSS F E E E E SSS F E E E E SSS F EF
e|--------------------------------------------------------|
B|--------------------------------------------------------|
G|--------------------------------------------------------|
D|---------2-------------2-------------2-------------5--5-|
A|---------2-------------2-------------2-------------5--5-|
E|-0-0-000-0-0-0-0-0-000-0-0-0-0-0-000-0-0-0-0-0-000-3-03-|
   . . ...   . . . . ...   . . . . ...   . . . . ...   .
 
   E E SSS F E E E E SSS F E E E E SSS F E E E E SSS E (E)(F)
e|-----------------------------------------------------------|
B|-----------------------------------------------------------|
G|-----------------------------------------------------------|
D|---------2-------------2-------------2-------------5-------|
A|---------2-------------2-------------2-------------5-------|
E|-0-0-000-0-0-0-0-0-000-0-0-0-0-0-000-0-0-0-0-0-000-3-------|
   . . ...   . . . . ...   . . . . ...   . . . . ...
 
Gtr 1. (After Gtr 2. ends)
   E E SSS F E E E E SSS F E E E E SSS F E E E E SSS F EF
e|--------------------------------------------------------|
B|--------------------------------------------------------|
G|--------------------------------------------------------| x8
D|---------2-------------2-------------2-------------5--5-|
A|---------2-------------2-------------2-------------5--5-|
E|-0-0-000-0-0-0-0-0-000-0-0-0-0-0-000-0-0-0-0-0-000-3-03-|
   . . ...   . . . . ...   . . . . ...   . . . . ...   .

And.. that's all it's progressed so far - bit lengthy, right? 
Tap to rate this tab
# A B C D E F G H I J K L M N O P Q R S T U V W X Y Z