Song name
# A B C D E F G H I J K L M N O P Q R S T U V W X Y Z

Misc Unsigned Bands - Pushing Through Reality - The Dizzy Head Project tab

Pushing Through Reality

Written By Rick "Dizzy13" Solis

Performed By The Dizzy Head Project

Tabbed By Dizzy

Tuning: Drop D

BPM: 158 (may change later)

Idea Date: May, June, or July 2009 (I forget.)

Finished Tabbed Idea: December 18 2009.





|------------------------------------------------|
|------------------------------------------------|Play 6X
|------------------------------------------------|
|--0---0-0-0-1---1-1-1-5---3-3-3--5--3h5p3-----1-|
|--0---0-0-0-1---1-1-1-3---3-3-3--5--3h5p3-----1-|
|--0---0-0-0-1---1-1-1-3---3-3-3--5--3h5p3-----1-|





|--------------------------------------------------|
|--------------------------------------------------|Play 3X
|--------------------------------------------------|
|--5---5-5-5-6---6-6-6-8---8-8-8--10--8h10p8-----6-|
|--5---5-5-5-6---6-6-6-8---8-8-8--10--8h10p8-----6-|
|--5---5-5-5-6---6-6-6-8---8-8-8--10--8h10p8-----6-|



|------------------------------------------------|
|------------------------------------------------|Play 6X
|------------------------------------------------|
|--0---0-0-0-1---1-1-1-5---3-3-3--5--3h5p3-----1-|
|--0---0-0-0-1---1-1-1-3---3-3-3--5--3h5p3-----1-|
|--0---0-0-0-1---1-1-1-3---3-3-3--5--3h5p3-----1-|



|------------------------------------------------|
|------------------------------------------------|play 4X
|------------------------------------------------|
|--3---5-5-5-6---6-6-6-8---8-8-8--8--6h8p6-----5-|
|--3---5-5-5-6---6-6-6-8---8-8-8--8--6h8p6-----5-|
|--3---3-3-3-5---5-5-5-6---6-6-6--8--6h8p6-----5-|




|------------------------------------------------|
|------------------------------------------------|Play 3X
|------------------------------------------------|
|--0---0-0-0-1---1-1-1-5---3-3-3--5--3h5p3-----1-|
|--0---0-0-0-1---1-1-1-3---3-3-3--5--3h5p3-----1-|
|--0---0-0-0-1---1-1-1-3---3-3-3--5--3h5p3-----1-|




|----------------------------------------------------|
|----------------------------------------------------|Play 3X
|----------------------------------------------------|
|--5---5-5-5-6----6-6-6-8----8-8-8--10--8h10p8-----6-|
|--5---5-5-5-6----6-6-6-8----8-8-8--10--8h10p8-----6-|
|--5---5-5-5-6----6-6-6-8----8-8-8--10--8h10p8-----6-|

|---|
|---|
|---|Ring out
|-3-|
|-3-|
|-3-|
Tap to rate this tab
 
# A B C D E F G H I J K L M N O P Q R S T U V W X Y Z