Song name
# A B C D E F G H I J K L M N O P Q R S T U V W X Y Z

Misc Unsigned Bands - Johnny Cooper - Missing You tab

Pretty simple song but on the breakdown I usually just fingerpick it or play the 
chords your choice though... 
also I'm still working on the solos so hopefully i will have them done soon.



INTRO:
E|----2--4~---------------------------2--4~---4--------------------------|
B|---3---5~--5-------3--2~--3-3p2----3---5~----5-----3--2~--3-3/5--------|
G|--2----6~---6-----4---2~----------2----6~-----6---4---2~---------------|
D|-0-----6~----6---4----2~---------0-----6~--6-----4----2~---------------|
A|-------4~-4-----2-----0~---------------4~-4-----2-----0~---------------|
E|-----------------------------------------------------------------------|

E|----2--4~---------------------------2--4~---4--------------------------|
B|---3---5~--5-------3--2~--3-3p2----3---5~----5-----3--2~---2-----------|
G|--2----6~---6-----4---2~----------2----6~-----6---4---2~---2-----------|
D|-0-----6~----6---4----2~---------0-----6~--6-----4----2~-2-2-----------|
A|-------4~-4-----2-----0~---------------4~-4-----2-----0~---0-----------|
E|-----------------------------------------------------------------------|

VERSE: Every time I run...
E|----2--4~---------------------------2--4~------------------------------|
B|---3---5~--5-------3--2~--3-3p2----3---5~--5-------3--2~--3-3p2--------|
G|--2----6~---6-----4---2~----------2----6~---6-----4---2~---------------|
D|-0-----6~----6---4----2~---------0-----6~----6---4----2~---------------|
A|-------4~-4-----2-----0~---------------4~-4-----2-----0~---------------|
E|-----------------------------------------------------------------------|

E|----2--4~---------------------------2--4~------------------------------|
B|---3---5~--5-------3--2~----3p2----3---5~--5-------3--2~---------------|
G|--2----6~---6-----4---2~----------2----6~---6-----4---2~---------------|
D|-0-----6~----6---4----2~---------0-----6~----6---4----2~---------------|
A|-------4~-4-----2-----0~---------------4~-4-----2-----0~---------------|
E|-----------------------------------------------------------------------|

CHORUS:I don't know what I'd do...
E|----------2~-------2-2--------------2~------2-2-------------------------|
B|-3-5---2--3~----3--3-3--2~-3p2---2--3~--3---3-3--2~--3p2----------------|
G|------2---4~---4---2-2--2~------2---4~---4--2-2--2~---------------------|
D|-----2----4~--4----0-0--2~-----2----4~------0-0--2~---------------------|
A|----0-----2~-2----------0~----0-----2~-2---------0~---------------------|
E|------------------------------------------------------------------------|

Solo 1:(not finished yet)

Verse:I try to keep...
Same as first verse

Chorus 2:I don't know what I'd do...
E|----------2~-------2-2-------------2~------2-2-------------------------|
B|-3-5---2--3~--3----3-3--2~-3p2--2--3~--3---3-3--2~---------------------|
G|------2---4~---4---2-2--2~------2--4~---4--2-2--2~---------------------|
D|-----2----4~-------0-0--2~------2--4~------0-0--2~---------------------|
A|----0-----2~------------0~------0--2~-----------0~---------------------|
E|-----------------------------------------------------------------------|

Breakdown:
E                                A            E
I bought season tickets, went to every single game 
                                 A            E
even went down to the arcade and spent all my change 
D                         A
invested in a stock and a new dvd 
D                A                   Bm        C#m     D    E
but every little thing i did made me think of you and me 

(Last part of breakdown)    H                  
E|---2--------2--4--2--0---12--------------------------------------------|
B|----3---2---3--5--3--0---12--------------------------------------------|
G|--2------2--4--6--2--1-------------------------------------------------|
D|-0-----2----4--6--0--2-------------------------------------------------|
A|------0-----2--4-----2-------------------------------------------------|
E|---------------------0-------------------------------------------------|

Solo 2:(Not finished yet)

Verse:Finally got some...
Same as other verses

Chorus 3:
E|----------2~-------2-2--------------2~-------2-2-----------------------|
B|-3-5---2--3~--3----3-3--2~-3-5---2--3~---3---3-3--2~--3p2--------------|
G|------2---4~---4---2-2--2~------2---4~----4--2-2--2~-------------------|
D|-----2----4~-------0-0--2~-----2----4~--4----0-0--2~-------------------|
A|----0-----2~------------0~----0-----2~-2----------0~-------------------|
E|-----------------------------------------------------------------------|

E|-------2~--------2-2--------------2~-------2-2-----------------------|
B|----2--3~---3----3-3--2~-5p3---2--3~---3---3-3--2~--3p2-0------------|
G|---2---4~----4---2-2--2~------2---4~----4--2-2--2~-------------------|
D|--2----4~--4-----0-0--2~-----2----4~--4----0-0--2~-------------------|
A|-0-----2~-2-----------0~----0-----2~-2----------0~-------------------|
E|---------------------------------------------------------------------|

Outro/Solo 3:(Not finished yet)
Tap to rate this tab
# A B C D E F G H I J K L M N O P Q R S T U V W X Y Z