Song name
# A B C D E F G H I J K L M N O P Q R S T U V W X Y Z

Misc Unsigned Bands - Laceration - Blood Spurt tab

h=hammer on
p=pull off
vv=vibrato

Guitar 1
|-------------------------------------------------|
|-------------------------------------------------|
|-------------------------------------------------| (4x Speed Up Gradually)
|-------------------------------------------------|
|-------------------------------------------------|
|-00-00-00-00-22-22-22-22-33-33-33-33-55-55-33-22-|

Guitar 2
|-------------------------------------------------|
|-------------------------------------------------|
|-------------------------------------------------|  (4x)
|-------------------------------------------------|
|-2-----------4-----------5-----------7-----5--4--|
|-0-----------2-----------3-----------5-----3--2--|

Both
|--------------------------------------------------|
|--------------------------------------------------|
|--------------------------------------------------|
|--------------------------------------------------|
|-2------------------------------------------------|
|-0------------------------------------------------|

Guitar 1
|-------------------|
|-------------------|
|-------------------| (x3)
|-------------------|
|-2-xx-2-xx---------|
|-0-xx-0-xx-2h3p2h5-|

Guitar 2
|-------------------|
|-------------------|
|-------------------| (x3)
|-------------------|
|-4-xx-4-xx---------|
|-2-xx-2-xx-4h5p4h7-|

Guitar 1
|-----------------------|
|-----------------------|
|-----------------------|
|-------2h3h5-----------|
|-2h3h5-------2h3h5-----|
|-------------------2vv-|

Guitar 2
|-----------------------|
|-----------------------|
|-----------------------|
|-------4h5h7-----------|
|-4h5h7-------4h5h7-----|
|-------------------4vv-|

Tap to rate this tab
# A B C D E F G H I J K L M N O P Q R S T U V W X Y Z