Song name
# A B C D E F G H I J K L M N O P Q R S T U V W X Y Z

Misc Unsigned Bands - Legend Of Mana - Nostagic Song tab

Made originally be me ~ Daniel-CRD
Not a tough guitar tab.
You might have a little problem on the 2nd verse though.
Have fun with these classical music.

VERSE 1(a)

E|-------------------------|-------------------------------------|
B|-------------------------|-------------------------------------|
G|--9--16--14--16--18--16--|--9--16--16--14--16--18--20--18--16--|
D|-------------------------|-------------------------------------|
A|-------------------------|-------------------------------------|
E|-------------------------|-------------------------------------|

E|--------------------------------------|----------------------------|
B|------17--17--15--15------------------|----------------------------|
G|--16------------------16--18--14--16--|--9--16--16--14--12--11--9--|
D|--------------------------------------|----------------------------|
A|--------------------------------------|----------------------------|
E|--------------------------------------|----------------------------|

E|-------------------------|-------------------------------------|
B|-------------------------|-------------------------------------|
G|--9--16--14--16--18--16--|--9--16--16--14--16--18--20--18--16--|
D|-------------------------|-------------------------------------|
A|-------------------------|-------------------------------------|
E|-------------------------|-------------------------------------|

E|--------------------------------------|----------------------------|
B|------17--17--15--15------------------|----------------------------|
G|--16------------------16--18--14--16--|--9--16--16--14--12--11--9--|
D|--------------------------------------|----------------------------|
A|--------------------------------------|----------------------------|
E|--------------------------------------|----------------------------|

E|----------------------------|
B|----------------------------|
G|--9--16--16--14--12--11--9--|
D|----------------------------|
A|----------------------------|
E|----------------------------|

VERSE 2(a)

E|--8--10--12--19--17--15--13--|--12--19--17--15--13--|
B|-----------------------------|----------------------|
G|-----------------------------|----------------------|
D|-----------------------------|----------------------|
A|-----------------------------|----------------------|
E|-----------------------------|----------------------|

E|--12--19--17--22--20--19--17--19--|----------------------|
B|----------------------------------|--12--19--17--15--13--|
G|----------------------------------|----------------------|
D|----------------------------------|----------------------|
A|----------------------------------|----------------------|
E|----------------------------------|----------------------|

E|----------------------|----------------------------------|
B|--12--19--17--15--13--|--12--19--17--22--20--19--17--19--|
G|----------------------|----------------------------------|
D|----------------------|----------------------------------|
A|----------------------|----------------------------------|
E|----------------------|----------------------------------|

VERSE 1(b)

E|-------------------------|-------------------------------------|
B|-------------------------|-------------------------------------|
G|--9--16--14--16--18--16--|--9--16--16--14--16--18--20--18--16--|
D|-------------------------|-------------------------------------|
A|-------------------------|-------------------------------------|
E|-------------------------|-------------------------------------|

E|--------------------------------------|----------------------------|
B|------17--17--15--15------------------|----------------------------|
G|--16------------------16--18--14--16--|--9--16--16--14--12--11--9--|
D|--------------------------------------|----------------------------|
A|--------------------------------------|----------------------------|
E|--------------------------------------|----------------------------|

E|-------------------------|-------------------------------------|
B|-------------------------|-------------------------------------|
G|--9--16--14--16--18--16--|--9--16--16--14--16--18--20--18--16--|
D|-------------------------|-------------------------------------|
A|-------------------------|-------------------------------------|
E|-------------------------|-------------------------------------|

E|--------------------------------------|----------------------------|
B|------17--17--15--15------------------|----------------------------|
G|--16------------------16--18--14--16--|--9--16--16--14--12--11--9--|
D|--------------------------------------|----------------------------|
A|--------------------------------------|----------------------------|
E|--------------------------------------|----------------------------|

E|----------------------------|
B|----------------------------|
G|--9--16--16--14--12--11--9--|
D|----------------------------|
A|----------------------------|
E|----------------------------|

VERSE 2(b)

E|--8--10--12--19--17--15--13--|--12--19--17--15--13--|
B|-----------------------------|----------------------|
G|-----------------------------|----------------------|
D|-----------------------------|----------------------|
A|-----------------------------|----------------------|
E|-----------------------------|----------------------|

E|--12--19--17--22--20--19--17--19--|----------------------|
B|----------------------------------|--12--19--17--15--13--|
G|----------------------------------|----------------------|
D|----------------------------------|----------------------|
A|----------------------------------|----------------------|
E|----------------------------------|----------------------|

E|----------------------|----------------------------------|
B|--12--19--17--15--13--|--12--19--17--22--20--19--17--19--|
G|----------------------|----------------------------------|
D|----------------------|----------------------------------|
A|----------------------|----------------------------------|
E|----------------------|----------------------------------|

OUTRO VERSE

E|-------------------------|-------------------------------------|
B|-------------------------|-------------------------------------|
G|--9--16--14--16--18--16--|--9--16--16--14--16--18--20--18--16--|
D|-------------------------|-------------------------------------|
A|-------------------------|-------------------------------------|
E|-------------------------|-------------------------------------|

~END~

Credits:
Legend of Mana OST[/url] d(^_^)b
Me(as in ME!!!)

Video: Coming Soon!!!
Tap to rate this tab
# A B C D E F G H I J K L M N O P Q R S T U V W X Y Z