Song name
# A B C D E F G H I J K L M N O P Q R S T U V W X Y Z

Misc Unsigned Bands - Jacob Guyer - Sounds Of The Lonely Heart tab

  Sounds of the Lonely Heart - Jacob Guyer
----------------------------------------------------------------------------

Tabbed by:Jacob Guyer
Email:kraetos0@yahoo.com

Tuning:Standard

h: hammer-on
p: pull-off

e|---------------------------------------------------------------------------|
B|--------0h1-----------------0h1-----------------0h1------------------------|
G|-------------2-------------------0-------------------2------------0--------|
D|-----2------------------2--------------------2------------------2----------|
A|--0------------------3--------------------0------------------3-------------|
E|---------------------------------------------------------------------------|

e|----------------------------------------------------------------------0--|
B|-----------------0h1------------0h1-3p1--------0h1----------1---------3--|
G|---------------------2------------------------------2-----0-------0---2--|
D|-----0--------2--------------2--------------2-----------2-------0-----0--|
A|---2--------0--------------3--------------0-----------3-------2----------|
E|-3----------------------------------------------------------3------------|
   G                         C                         C      G         D


This is just the Intro I have not yet finished writing the song. More to come. Until 
you are free to add to this and send ideas. Thanks - JG
Tap to rate this tab
# A B C D E F G H I J K L M N O P Q R S T U V W X Y Z