Song name
# A B C D E F G H I J K L M N O P Q R S T U V W X Y Z

Misc Unsigned Bands - Adam Gottlob Oehlenschlger Hans Ernst Kryer - Der Er Et Yndigt Land tab

Song: Der Er Et Yndigt Land
Artist: Adam Gottlob Oehlenschlager (Text), Hans Ernst Kroyer (Melody)
Tabbed by: iTab
Email: iTab-4-You@hotmail.com

Tuning: Standard (EADGBe)

e|---------------------------------------------------------------------------|
B|---------------------------------------------------------------------------|
G|----------0--3--3-2-0-0---------------------0------------------------------|
D|--3--3-0---------------3--3----------0--2-3---3--2--3----------------------|
A|-1------1---1---------------0--0-1-3---------------------------------------|
E|---------------------------------------------------------------------------|

e|---------------------------------------------------------------------------|
B|---------------------------------------------------------------------------|
G|---2--2-0------3-3---0--0-0-0-0-------------0-3--3-2-0-0-------------------|
D|-3--------3--3-----0------------4-3-3-2-1-0--------------3-----------------|
A|------------------------------------------------------------0-1------------|
E|---------------------------------------------------------------------------|


I hope it's useful :-)
Everything is tabbed by ear by my father, I just submit it.

/iTab
Tap to rate this tab
# A B C D E F G H I J K L M N O P Q R S T U V W X Y Z