Song name
# A B C D E F G H I J K L M N O P Q R S T U V W X Y Z

Misc Unsigned Bands - Nueve - Meditation tab

Tuning: EADGBe
e|--2/3--333--1-3/4--2/3--333--1-3/4--1/2--222--3-2p0--1/2--222--3-2p0-------|
B|--3/4--444---------3/4--444---------1/2--222---------1/2--222--------------|
G|--4/5--555---------4/5--555---------1/2--222---------1/2--222--------------|
D|---------------------------------------------------------------------------|
A|---------------------------------------------------------------------------|
E|---------------------------------------------------------------------------|

e|--33-x-333-x-33-x-333-x-66-x-666-x-44-x-444--------------------------------|
B|--55-x-555-x-33-x-333-x-66-x-666-x-44-x-444--------------------------------|
G|--55-x-555-x-44-x-444-x-66-x-666-x-55-x-555--------------------------------|
D|---------------------------------------------------------------------------|
A|---------------------------------------------------------------------------|
E|---------------------------------------------------------------------------|

e|--3--3--3--3--6--6--4--4--3--3--3--3--6--6--4--4---------------------------|
B|--5--5--3--3--6--6--4--4--5--5--3--3--6--6--4--4---------------------------|
G|--5--5--4--4--6--6--5--5--5--5--4--4--6--6--5--5---------------------------|
D|---------------------------------------------------------------------------|
A|---------------------------------------------------------------------------|
E|---------------------------------------------------------------------------|

e|---------------------------------------------------------------------------|
B|-----------------2---------------------------------------------------------|
G|------------2-4----4-2-------------------2---------------------------------|
D|--2-2-s-2-4------------4-------------2-4---4-2-----------------2-----------|
A|---------------------------2-2-s-2-4-----------4----------2-4---4-2--------|
E|-------------------------------------------------2-2-s-2-4----------4------|

e|---------------------------------------------------------------------------|
B|--------------------------------------2------------------------------------|
G|----------------2-----------------2-4---4-2------------------2-------------|
D|------------2-4---4-2---2-2-s-2-4-----------4------------2-4---4-2---------|
A|--2-2-s-2-4-----------4------------------------2-2-s-2-4-----------4-------|
E|---------------------------------------------------------------------------|

e|---------------------------------------------------------------------------|
B|---------------------------------------------------------------------------|
G|---------------------------------------------------------------------------|
D|-----------------2---------------------------------------------------------|
A|-------------2-4---4-2---2-2-----------------------------------------------|
E|---2-2-s-2-4-----------4---------------------------------------------------|





| s  slap
| /  slide up
| \  slide down
| h  hammer-on
| p  pull-off
| ~  vibrato
| +  harmonic
| x  Mute note
===============================================================================
Tap to rate this tab
# A B C D E F G H I J K L M N O P Q R S T U V W X Y Z