Song name
# A B C D E F G H I J K L M N O P Q R S T U V W X Y Z

Misc Unsigned Bands - Dubl-j Wizl - The Hardcore Party Song tab

This is my first tab and my drummer and I wrote it for when we play at our 
school's dance. We do plan on changing our band's name. This one's just to start with.

I set the tuning at standard but it sounds cool at Drop D too, so you can try each 
and see how they feel. I'm gonna try and put some of our band's songs on youtube 
so you can see how they go.

I might rename this too because I just had to think of the name, but we haven't 
thought of a name for it yet.

~Jonah

h=hammer on
~ Whammy if necissary


(Bass intro)


Guitar 1 Joins (intro)
E|-------------------------------------------|
B|-------------------------------------------|
G|-------------------------------------------|  x2
D|-------------------------------------------|
A|-------------------------------------------|
E|--0--2--3--2--7--5--3--2--2---2---2-2-2222-|


Then the Guitar 2 joins after the second one playing the same thing.


Guitar 2 Riff #1
E|---------------------------------------------|
B|---------------------------------------------|
G|---------------------------------------------|  x4
D|--0--2--3--2--7--5--3--2--2---2---2--2-2222--|
A|--0--2--3--2--7--5--3--2--2---2---2--2-2222--|
E|--0--2--3--2--7--5--3--2--2---2---2--2-2222--|


Guitar 1 Riff #1
E|-------------------------------------------------|
B|-----------------------------2--/9---9--9-9999---|
G|-----------------------------2--/9---9--9-9999---|  x4
D|--0--2--3--2--7--5--3--2--2----------------------|
A|--0--2--3--2--7--5--3--2--2----------------------|
E|--0--2--3--2--7--5--3--2--2----------------------|

On the first time Guitar 1 plays the same thing as Guitar 2. Then Guitar 1 plays 
Riff #1 three times.


Chorus for both guitarists:
E|-----------------------|
B|-----------------------|
G|-----------------------|  x3  
D|--2--22-22--5--55-55---|  ----|
A|--2--22-22--5--55-55---|      |
E|--2--22-22--5--55-55---|      | 
                                |
                                | x4
On the 3rd time play this after |
E|-------------------|          |
B|-------------------|          |
G|-------------------|  --------|
D|--7--77--710-9-----|
A|--7--77--710-9-----|
E|--7--77--710-9-----|


Both guitars play the Guitar 2 part and get a slower and a little softer.

(Drums play)

Guitar 2 Riff #2 (Both Guitars play the first 4)
E|-----------------------|
B|-----------------------|
G|-----------------------|  x10
D|--02327532-02328--7----|
A|--02327532-02328--7----|
E|--02327532-02328--7----|


Guitar 1 Riff #2
E|--0232753-0232-8--7----|
B|--0232752-0232-8--7----|
G|-----------------------|  x4
D|-----------------------|
A|-----------------------|
E|-----------------------|


E|--1113141318161413-111314131918---|
B|----------------------------------|
G|----------------------------------|  x2
D|----------------------------------|
A|----------------------------------|
E|----------------------------------|

(Chorus)


Solo:
E|--1113141318161413-1113141319--18-|
B|----------------------------------|
G|----------------------------------|  x2
D|----------------------------------|
A|----------------------------------|
E|----------------------------------|

I separated the numbers from the 20+ frets so itd be easier to read.
E|--14161716-21-191716-14161716-22--21--|
B|--------------------------------------|
G|--------------------------------------|  x2
D|--------------------------------------|
A|--------------------------------------|
E|--------------------------------------|

E|--------------------------------------------------|
B|--15h18-15h18-15h18-15h18-13h15-13h15-13h15-13h15-|
G|--------------------------------------------------| ---|
D|--------------------------------------------------|    |
A|--------------------------------------------------|    |
E|--------------------------------------------------|    | x2
                                                         |
E|--17h19-17h19-17h19-17h19-12h14-12h14-------1412--|    |
B|--------------------------------------12h14-------|    |
G|--------------------------------------------------| ---|
D|--------------------------------------------------|
A|--------------------------------------------------|
E|--------------------------------------------------|


During the solo Guitar 2 just play Riff #2 repeatedly until the solo ends.

After the solo you just go back to the Guitar 2 Riff #2 part 4 times. Go to the 
Chorus, then back to Riff #1.

For Guitar 1 Riff #1, do this on the 2nd one:
E|-----------------------------2--/12---12--12-12121212-|
B|-----------------------------2--/12---12--12-12121212-|
G|------------------------------------------------------|
D|--0--2--3--2--7--5--3--2--2---------------------------|
A|--0--2--3--2--7--5--3--2--2---------------------------|
E|--0--2--3--2--7--5--3--2--2---------------------------|

Then on the 4th one:
E|-----------------------------2--/14---14--14-14141414-|
B|-----------------------------2--/14---14--14-14141414-|
G|------------------------------------------------------|
D|--0--2--3--2--7--5--3--2--2---------------------------|
A|--0--2--3--2--7--5--3--2--2---------------------------|
E|--0--2--3--2--7--5--3--2--2---------------------------|


Outro
E|-----------------------------|
B|-----------------------------|
G|-----------------------------|
D|--2---2---2---2---2~~~-2-----|
A|--2---2---2---2---2~~~-2-----|
E|--0---0---0---0---0~~~-0-----|


Like I said I'll be uploading these songs to youtube and our myspace page once we 
get better at them.

~PEACE
Tap to rate this tab
# A B C D E F G H I J K L M N O P Q R S T U V W X Y Z