Song name
# A B C D E F G H I J K L M N O P Q R S T U V W X Y Z

Misc Unsigned Bands - Angel Of Death - Trash tab

got bored so i made this up

h=hammer on
.=palm mute
~=ring


E|---------------------------------------------------------------------------|
B|---------------------------------------------------------------------------|
G|---------------------------------------------------------------------------|
D|--------------------------3--------------------------------------------2~~-|
A|--7-5-4-7-5-4-7-5--4-7----5--5--4---7h-10h-7h-10h-7h-10h-5h-7h-5h-7h-5p2~~-|
E|--5-3-2-5-3-2-5-3--2-5-------3--2--------------------------------------0~~-|
    ...............

E|-------------------------------------------------------------------------|
B|-------------------------------------------------------------------------|
G|-------------------------------------------------------------------------|
D|---------------------------------------9-7-5-4-2~-3~~~--2~~~--4~~~~~~~~~-|
A|--2-2-2-2-5-5-5-5-7-7-7-7-10-10-10-10--7-5-3-2-0~-3~~~--2~~~--4~~~~~~~~~-|
E|--0-0-0-0-3-3-3-3-5-5-5-5-8--8--8--8--------------1~~~--0~~~--2~~~~~~~~~-|
    .   .   ..........................
Tap to rate this tab
# A B C D E F G H I J K L M N O P Q R S T U V W X Y Z