Song name
# A B C D E F G H I J K L M N O P Q R S T U V W X Y Z

Misc Unsigned Bands - Goukisan - Betrayal Of Fate tab

Betrayal of Fate - Goukisan
Taken from the Newgrounds Audio Portal
Tab by JonDax.

goukisan.newgrounds.com

Standard Tuning: EADGBE

This song is played at 100 bpm!

Intro - for guitar or synth

E||----------------------------------|----------------------------------|
B||----------------------------------|----------------------------0-----|
G||----------1-----------------1---3-|----------1-----------1---------3-|
D||--1-1-3-4---4-3-4-1-1-4-1-1---1---|--1-1-3-4---4-3-4-1-1---1-1---1---|
A||----------------------------------|----------------------------------|
E||----------------------------------|----------------------------------|

----------------------------------|----------------------------------|
----------------------------------|----------------------------0-----|
----------1-----------------1---3-|----------1-----------1---------3-|
--1-1-3-4---4-3-4-1-1-4-1-1---1---|--1-1-3-4---4-3-4-1-1---1-1---1---|
----------------------------------|----------------------------------|
----------------------------------|----------------------------------|

Opening (synth guitar starts playing with beat-machine)

     PM PM PM PM     PM PM   PM PM
  S  S  S  S  S S S  S  S S  S  S S  S E
E||------------------------------------------|
B||------------------------------------------|
G||--------------1---------------------------|
D||--1--1--1--1----4-1--1--3-1--1--3-1--3-4--|
A||------------------------------------------|
E||------------------------------------------|


  PM PM PM PM   PH  PM     PM     PM
  S  S  S  S  S S S S  S S S  S S S  E
----------------------------------------|
----------------------------------------|
--------------1-3-1---------------------|
-----------------------3-4----3-4----4--|
--2--2--2--2--------2------2------2-----|
----------------------------------------|


  PM PM PM PM     PM PM   PM PM   PM PM
  S  S  S  S  S S S  S  S S  S  S S  S  E
-------------------------------------------|
-------------------------------------------|
--------------1----------------------------|
--1--1--1--1----4-1--1--3-1--1--3-1--3--4--|
-------------------------------------------|
-------------------------------------------|


  PM PM PM PM       PM   PM PM   PM PM
  S  S  S  S  S S S S  S S  S  S S  S  S S
-------------------------------------------|
-----------------------0-------0-------0---|
--------------1-3-1----------------------3-|
-------------------------------------------|
--2--2--2--2--------2----2--2----2--2------|
-------------------------------------------|


  PM PM PM PM         PM PM PM PM
  S  S  S  S  S S S S S  S  S  S  S S E
-----------------------------------------|
-----------------------------------------|
------------------1----------------------|
--1--1--1--1--3-4---4-1--1--1--1--3-4-4--|
-----------------------------------------|
-----------------------------------------|


  PM PM PM PM         PM PM PM PM
  S  S  S  S  S S S S S  S  S  S  S S E     E.  E.  E.  E.  E  E
-----------------------------------------|------------------------|
--------------------2-----------------2--|--0---------------------|
------------------1---------------1-3----|------3-----------------|
--------------3-4------------------------|----------4---3---1--3--|
--4--4--4--4----------4--4--4--4---------|------------------------|
-----------------------------------------|------------------------|


     PM PM PM PM PM PM    PM PM PM PM PM PM
  E  S  S  S  S  S  S  E  S  S  S  S  S  S
--------------------------------------------|
--------------------------------------------|
--------------------------------------------|
--1--1--1--1--1-----1--1--1--1--1--1-----1--|
-----------------4--------------------4-----|
--------------------------------------------|


The rest is coming soon, I hope. At some part, the song becomes a bit more complicated
analyze because of harmonization and other instruments making noise which makes it hard
hear all the tones clearly. I also plan on making a full Guitar Pro version of this, 
guitars, piano, bass, drums and "choir aahs" (choir like synth you can here at some
of the song). It might take some time, but it's going to be worth the wait.
I apologize for my English.
Good luck with playing this awesome song. Try not to break your fingers.

Here is the legend (not all the symbols written here are used in this tab):

Duration
---------------
W - whole
H - half
Q - quarter
E - 8th
S - 16th
T - 32nd
X - 64th
. - note dotted
|-n-|  - n-tuplets


Tablature
----------------
L - tied note
x - dead note
g - grace note
(n) - ghost note
> - accentuded note
PM - palm mute
NH - natural harmonic
AH - artificial harmonic
TH - tapped harmonic
SH - semi harmonic
PH - pinch harmonic
h - hammer on
p - pull off
b - bend
br - bendRelease
pb - preBend
pbr - preBendRelease
brb - bendReleaseBend
\n/ - tremolo bar dip
\n - tremolo bar dive
-/n - tremolo bar Release up
/n\ - tremolo bar inverted dip
/n - tremolo bar return
-\n - tremolo bar Release down
S - shift slide
s - legato slide
/ -  slide into from below or out of upwards
\ -  slide into from above or out of downwards
~ - vibrato
W - wide vibrato
tr - trill
TP - tremolo picking
T - tapping
S - slap
P - pop
< - fade in
^ - brush up
v - brush down
Tap to rate this tab
 
# A B C D E F G H I J K L M N O P Q R S T U V W X Y Z