Song name
# A B C D E F G H I J K L M N O P Q R S T U V W X Y Z

Misc Unsigned Bands - Blue Screen - No Way Home tab

-------------------------------------------------------------------------------
			     No Way Home - Blue Screen
-------------------------------------------------------------------------------
Tabbed by:Alec Stewart
Email:Alec_Stewart@cox.net

Guitars 1(clean)2(clean)3(distorted)4(distorted)
Tuning: Drop D
Guitar 1
e|---------------------------------------------------------------------------|
B|---------------------------------------------------------------------------|
G|---------------------------------------------------------------------------|
D|---10--10--10--12--12--12--9---9---9--7----9-------------------------------|
A|-12--12--12--14--14--14--10--10--10--8-8-10--10----------------------------|
D|---------------------------------------------------------------------------|
Guitar 2
e|-1-----------3-----------0-----------0---0---------------------------------|
B|-3-----------5-----------0-----------1---0---------------------------------|
G|-2-----------4-----------0-----------2---0---------------------------------|
D|-0-----------0-----------2-----------2---2---------------------------------|
A|-------------------------2-----------0---2---------------------------------|
D|---------------------------------------------------------------------------|


e|---------------------------------------------------------------------------|
B|---------------------------------------------------------------------------|
G|---------------------------------------------------------------------------|
D|---10--10--10--12--12--12--9---9---9-8-------------------------------------|
A|-12--12--12--14--14--14--10--10--10--7-------------------------------------|
D|----------------------------------------------dist ped---------------------|
                                        1 2 3 4 1 2 3 4
e|-1-----------3-----------0-----------0-------------------------------------|
B|-3-----------5-----------0-----------0-------------------------------------|
G|-2-----------4-----------0-----------2-------------------------------------|
D|-0-----------0-----------2-----------2-------------------------------------|
A|-------------------------2-----------0-------------------------------------|
D|---------------------------------------------dist ped----------------------|
                                       1 2 3 4 1 2 3 4

Guitar 3
e|--------------------------------------------x4-----------------------------|
B|---------------------------------------------|-----------------------------|
G|---------------------------------------------|-----------------------------|
D|---------------------------------------------|-----------------------------|
A|---------------------------------------------|--------------Drum Fill------|
D|-0-10-12-0-10-12-0-10-12-0-10-12-14-12-10-12-|-----10~---------------------|
                                                       1 2 3 4 5 6 7 8
Guitar 4
e|--------x2--------------------------------------------x2-------------------|
B|---------|---------------------------------------------|-------------------|
G|---rest--|---------------------------------------------|-------------------|
D|---------|---------------------------------------------|--------Drum Fill--|
A|---------|---------------------------------------------|-------------------|
D|---------|-0-14-15-0-14-15-0-14-15-0-14-15-17-15-14-15-|---14~-------------|
                                                             1 2 3 4 5 6 7 8

e|--------------------------------------------------------------------------x4
B|---------------------------------------------------------------------------|
G|---------------------------------------------5-7---6-6---------------------|
D|---7-5-------5-----------------7-5-------5-7-------------------------------|
A|-5-----8-7h8---7-3-5---8-8---5-----8-7h8-----------------------------------|
D|---------------------------------------------------------------------------|

e|--------------------------------------------------------------------------x4
B|---------------------------------------------------------------------------|
G|---------------------------------------------------------------------------|
D|-0--0-3-5---0-0--------0--0-3-5---0-0--------------------------------------|
A|-0--0-3-5---0-0--------0--0-3-5---0-0-4*4*---------------------------------|
D|-0--0-3-5---0-0-3*3*---0--0-3-5---0-0--------------------------------------|
   o  o       o o        o  o o o                   

e|--------------------------------------------------------------------------x4
B|---------------------------------------------------------------------------|
G|---------------------------------------------------------------------------|
D|-0-0-6-0---------------------0-0-6-0---------------------------------------|
A|-0-0-6-0---------------------0-0-6-0---------------------------------------|
D|-0-0-6-0-10p7h10p7-9p6h9p6---0-0-6-0-10p7h10p7-9p6h9p6---------------------|
   o o o o                     o o o o  
e|------------x2------------------------------------------------------------x2
B|-------------|-------------------------------------------------------------|
G|-------------|-------------------------------------------------------------|
D|----rest-----|-0-0-6-0-------------------0-0-0-6-0-------------------------|
A|-------------|-0-0-6-0-8p5h8p5-7p4h7p4---0-0-0-6-0-8p5h8p5-7p4h7p4---------|
D|-------------|-0-0-6-0-------------------0-0-0-6-0-------------------------|
                 o o o o                   o o o o o

e|---------------------------------------x3----------------------------------|
B|----------------------------------------|----------------------------------|
G|-9/10\9-5/7-----------------------------|-9/10\9-5/7-----------------------|
D|-x------x----0-0-0--0-0-0-6---0--0-0-0-3|-x------x---0-0-0--0-0-0-6--0-0---|
A|-7/8-\7-3/5--0-0-0--0-0-0-6---0--0-0-0-3|-7/8-\7-3/5-0-0-0--0-0-0-6--0-0---|
D|-------------0-0-0--0-0-0-6---0--0-0-0-3|------------0-0-0--0-0-0-6--0-0-3*|
               o o o  o o o     o  o o o               o o o  o o o    o o
e|---------------------------------------x3----------------------------------|
B|----------------------------------------|----------------------------------|
G|----------------------------------------|----------------------------------|
D|-8-7-3-0---0-0-0--0-0-0-6---0--0-0-0-3--|--8-7-3-0---0-0-0--0-0-0-6--0-0---|
A|-8-7-3-0---0-0-0--0-0-0-6---0--0-0-0-3--|--8-7-3-0---0-0-0--0-0-0-6--0-0---|
D|-8-7-3-0---0-0-0--0-0-0-6---0--0-0-0-3--|--8-7-3-0---0-0-0--0-0-0-6--0-0-3*|
             o o o  o o o     o  o o o                 o o o  o o o    o o


e|--------------------------------------------------------------------------x4
B|---------------------------------------------------------------------------|
G|---------------------------------------------5-7---6-6---------------------|
D|---7-5-------5-----------------7-5-------5-7-------------------------------|
A|-5-----8-7h8---7-3-5---8-8---5-----8-7h8-----------------------------------|
D|---------------------------------------------------------------------------|

e|--------------------------------------------------------------------------x4
B|---------------------------------------------------------------------------|
G|---------------------------------------------------------------------------|
D|-0--0-3-5---0-0--------0--0-3-5---0-0--------------------------------------|
A|-0--0-3-5---0-0--------0--0-3-5---0-0-4*4*---------------------------------|
D|-0--0-3-5---0-0-3*3*---0--0-3-5---0-0--------------------------------------|
   o  o o o   o o        o  o o o   o o                    

e|--------------------------------------------------------------------------x4
B|---------------------------------------------------------------------------|
G|---------------------------------------------------------------------------|
D|-0-0-6-0---------------------0-0-6-0---------------------------------------|
A|-0-0-6-0---------------------0-0-6-0---------------------------------------|
D|-0-0-6-0-10p7h10p7-9p6h9p6---0-0-6-0-10p7h10p7-9p6h9p6---------------------|
   o o o o                     o o o o   
e|------------x2------------------------------------------------------------x2
B|-------------|-------------------------------------------------------------|
G|-------------|-------------------------------------------------------------|
D|----rest-----|-0-0-6-0-------------------0-0-0-6-0-------------------------|
A|-------------|-0-0-6-0-8p5h8p5-7p4h7p4---0-0-0-6-0-8p5h8p5-7p4h7p4---------|
D|-------------|-0-0-6-0-------------------0-0-0-6-0-------------------------|
                 o o o o                   o o o o o 

e|---------------------------------------x3----------------------------------|
B|----------------------------------------|----------------------------------|
G|-9/10\9-5/7-----------------------------|-9/10\9-5/7-----------------------|
D|-x------x----0-0-0--0-0-0-6---0--0-0-0-3|-x------x---0-0-0--0-0-0-6--0-0---|
A|-7/8-\7-3/5--0-0-0--0-0-0-6---0--0-0-0-3|-7/8-\7-3/5-0-0-0--0-0-0-6--0-0---|
D|-------------0-0-0--0-0-0-6---0--0-0-0-3|------------0-0-0--0-0-0-6--0-0-3*|
               o o o  o o o     o  o o o               o o o  o o o    o o   
e|---------------------------------------x3----------------------------------|
B|----------------------------------------|----------------------------------|
G|----------------------------------------|----------------------------------|
D|-8-7-3-0---0-0-0--0-0-0-6---0--0-0-0-3--|--8-7-3-0---0-0-0--0-0-0-6--0-0---|
A|-8-7-3-0---0-0-0--0-0-0-6---0--0-0-0-3--|--8-7-3-0---0-0-0--0-0-0-6--0-0---|
D|-8-7-3-0---0-0-0--0-0-0-6---0--0-0-0-3--|--8-7-3-0---0-0-0--0-0-0-6--0-0-3*|
             o o o  o o o     o  o o o                 o o o  o o o    o o  


Guitar 1
e|----------------------------12--10-----------------------------------------|
B|-10----10-8---8--6-6-8--8-10--10---10----10-8---8--6-6-8--8-11-------------|
G|---10------9--------7--9-------------10------9------7----9--10-------------|
D|-----12------10------------------------12-----10---------------------------|
A|---------------------------------------------------------------------------|
D|---------------------------------------------------------------------------|
Guitar 2
e|---------------------------------------------------------------------------|
B|---------------------------------------------------------------------------|
G|-------------------To Keyboard---------------------------------------------|
D|---------------------------------------------------------------------------|
A|---------------------------------------------------------------------------|
D|---------------------------------------------------------------------------|

Guitar 3
e|---------------------------------------x3----------------------------------|
B|----------------------------------------|----------------------------------|
G|-9/10\9-5/7-----------------------------|-9/10\9-5/7-----------------------|
D|-x------x----0-0-0--0-0-0-6---0--0-0-0-3|-x------x---0-0-0--0-0-0-6--0-0---|
A|-7/8-\7-3/5--0-0-0--0-0-0-6---0--0-0-0-3|-7/8-\7-3/5-0-0-0--0-0-0-6--0-0---|
D|-------------0-0-0--0-0-0-6---0--0-0-0-3|------------0-0-0--0-0-0-6--0-0-3*|
               o o o  o o o     o  o o o               o o o  o o o    o o   
Guitar 4
e|---------------------------------------x3----------------------------------|
B|----------------------------------------|----------------------------------|
G|----------------------------------------|----------------------------------|
D|-8-7-3-0---0-0-0--0-0-0-6---0--0-0-0-3--|--8-7-3-0---0-0-0--0-0-0-6--0-0---|
A|-8-7-3-0---0-0-0--0-0-0-6---0--0-0-0-3--|--8-7-3-0---0-0-0--0-0-0-6--0-0---|
D|-8-7-3-0---0-0-0--0-0-0-6---0--0-0-0-3--|--8-7-3-0---0-0-0--0-0-0-6--0-0-3*|
             o o o  o o o     o  o o o                 o o o  o o o    o o 

e|-------------------------------------------x3------------------------------|
B|--------------------------------------------|------------------------------|
G|--------------------------------------------|------------------------------|
D|--------------------------------------------|---------------------10-12~--0|
A|--------------------------------------------|---------------10-12---------0|
D|-0-10-12-0-10-12-0-10-12-0-10-12-14-12-10-12|-0-10-12-14-15---------------0|
                                                                            o 
e|--------------------------------------------|------------------------------|
B|--------------------------------------------|------------------------------|
G|--------------------------------------------|------------------------------|
D|--------------------------------------------|------------------12-14-16~--0|
A|--------------------------------------------|------------12-13------------0|
D|-0-14-15-0-14-15-0-14-15-0-14-15-17-15-14-15|-0-14-15-17------------------0|
                                                                            o
| /  slide up
| \  slide down
| h  hammer-on
| p  pull-off
| ~  vibrato
| +  harmonic
| *  artificial harmonic
| x  Mute note
| o  Palm mute
===============================================================================
Tap to rate this tab
 
# A B C D E F G H I J K L M N O P Q R S T U V W X Y Z