Song name
# A B C D E F G H I J K L M N O P Q R S T U V W X Y Z

Misc Unsigned Bands - A Silenced Homicide - The Bed You Lie In tab

-------------------------------------------------------------------------------
			the bed you lie in - a silenced homicide
-------------------------------------------------------------------------------
Tabbed by:hacker34
Email:amorzinski@yahoo.com

Tuning: drop c#

intro(x 2)

e|---------------------------------------------------------------------------|
B|---------------------------------------------------------------------------|
G|---------------------------------------------------------------------------|
D|-------------7h8h10----------8-7----------------------7h8h10---------------|
A|------7h8h10---------------------10-8-<7>------7h8h10------------88887777--|
E|-000-----------------000----------------000-000--------------00------------|

e|---------------------------------------------------------------------------|
B|---------------------------------------------------------------------------|
G|---------------------------------------------------------------------------|
D|---------------------------------------------------------------------------|
A|----------7-8-10-8-7-----------------------------7-------------------------|
E|-88888888------------10-8-7-8~-77777777---7-8-10---10-8-7h87h8--8h108h10---|

2nd intro( x 2)
e|---------------------------------------------------------------------------|
B|---------------------------------------------------------------------------|
G|---------------------------------------------------------------------------|
D|-------------------5-7-5--------------------------5-7-5--------8~----------|
A|-------------5-7-8-------7-8----------------5-7-8-------8-7-5--------------|
E|-000-000-000-----------------8--000-000-000--------------------------------|

e|---------------------------------------------------------------------------|
B|---------------------------------------------------------------------------|
G|------------------------------------12-12-12-12----------------------------|
D|-------------------5-7-5------------10-10-10-10---8-8-8-8------------------|
A|-------------5-7-8-------8-7-5-4~---10-10-10-10---8-8-8-8------------------|
E|-888-888-888------------------------10-10-10-10---8-8-8-8------------------|


| /  slide up
| \  slide down
| h  hammer-on
| p  pull-off
| ~  vibrato
| +  harmonic
| x  Mute note
===============================================================================
Tap to rate this tab
 
# A B C D E F G H I J K L M N O P Q R S T U V W X Y Z