Song name
# A B C D E F G H I J K L M N O P Q R S T U V W X Y Z

Misc Unsigned Bands - Scott Porter And The Glory Dogs - Pretend tab

I figured this out from watching Bandslam. Im pretty sure the chorus chords are right 
im not sure. Listen to the song to figure out the correct strumming.

Its played with Standard Tuning

capo on the 4th fret

Intro/Verse
e ---3-3---3-3---3-3---3-3---3-3---3-3---3-3-2-2-3-|
B ---3-3---3-3---3-3---3-3---3-3---3-3---3-3-3-3-3-|
G ---0-0---0-0---2-2---0-0---0-0---0-0---2-2-2-2-2-|
D -------------------2-----1-----------2-----0-0-0-|       X2
A -------------------3-----3-----------------0-0-0-|
E -3-----2-----1-----------------3-----------X-X-X-|
"Say, won't you stay..."
"The games we could play..."


Chorus G   D   Em7 Cadd9
e------3---2---3---3---|
B------3---3---3---3---|
G------0---2---0---0---|   X4
D------0---0---2---2---|
A------2---0---2---3---|
E------3---X---0---X---|
"They told me baby shes crazy..."
"All that I Know is that ive never..."
"And no ill never leave if its alright..."
"All of my life I pretend..."

After chorus repeat verse and then chorus again


--Brownie--
Tap to rate this tab
# A B C D E F G H I J K L M N O P Q R S T U V W X Y Z